  0
SECTION
  2
HEADER
  9
$ACADVER
  1
AC1018
  9
$ACADMAINTVER
 70
   104
  9
$DWGCODEPAGE
  3
ANSI_1251
  9
$LASTSAVEDBY
  1
A_Melezhik
  9
$INSBASE
 10
0.0
 20
0.0
 30
0.0
  9
$EXTMIN
 10
6945.474051583264
 20
-5209.30238426802
 30
-0.0000000000000053
  9
$EXTMAX
 10
9768.157543427562
 20
-2788.007170591518
 30
0.0000000000000099
  9
$LIMMIN
 10
0.0
 20
0.0
  9
$LIMMAX
 10
420.0
 20
297.0
  9
$ORTHOMODE
 70
     0
  9
$REGENMODE
 70
     1
  9
$FILLMODE
 70
     1
  9
$QTEXTMODE
 70
     0
  9
$MIRRTEXT
 70
     0
  9
$LTSCALE
 40
1.0
  9
$ATTMODE
 70
     1
  9
$TEXTSIZE
 40
2.5
  9
$TRACEWID
 40
1.0
  9
$TEXTSTYLE
  7
Standard
  9
$CLAYER
  8
0
  9
$CELTYPE
  6
ByLayer
  9
$CECOLOR
 62
   256
  9
$CELTSCALE
 40
1.0
  9
$DISPSILH
 70
     0
  9
$DIMSCALE
 40
1.0
  9
$DIMASZ
 40
2.5
  9
$DIMEXO
 40
0.625
  9
$DIMDLI
 40
3.75
  9
$DIMRND
 40
0.0
  9
$DIMDLE
 40
0.0
  9
$DIMEXE
 40
1.25
  9
$DIMTP
 40
0.0
  9
$DIMTM
 40
0.0
  9
$DIMTXT
 40
2.5
  9
$DIMCEN
 40
2.5
  9
$DIMTSZ
 40
0.0
  9
$DIMTOL
 70
     0
  9
$DIMLIM
 70
     0
  9
$DIMTIH
 70
     0
  9
$DIMTOH
 70
     0
  9
$DIMSE1
 70
     0
  9
$DIMSE2
 70
     0
  9
$DIMTAD
 70
     1
  9
$DIMZIN
 70
     8
  9
$DIMBLK
  1

  9
$DIMASO
 70
     1
  9
$DIMSHO
 70
     1
  9
$DIMPOST
  1

  9
$DIMAPOST
  1

  9
$DIMALT
 70
     0
  9
$DIMALTD
 70
     3
  9
$DIMALTF
 40
0.03937007874016
  9
$DIMLFAC
 40
1.0
  9
$DIMTOFL
 70
     1
  9
$DIMTVP
 40
0.0
  9
$DIMTIX
 70
     0
  9
$DIMSOXD
 70
     0
  9
$DIMSAH
 70
     0
  9
$DIMBLK1
  1

  9
$DIMBLK2
  1

  9
$DIMSTYLE
  2
ISO-25
  9
$DIMCLRD
 70
     0
  9
$DIMCLRE
 70
     0
  9
$DIMCLRT
 70
     0
  9
$DIMTFAC
 40
1.0
  9
$DIMGAP
 40
0.625
  9
$DIMJUST
 70
     0
  9
$DIMSD1
 70
     0
  9
$DIMSD2
 70
     0
  9
$DIMTOLJ
 70
     0
  9
$DIMTZIN
 70
     8
  9
$DIMALTZ
 70
     0
  9
$DIMALTTZ
 70
     0
  9
$DIMUPT
 70
     0
  9
$DIMDEC
 70
     2
  9
$DIMTDEC
 70
     2
  9
$DIMALTU
 70
     2
  9
$DIMALTTD
 70
     3
  9
$DIMTXSTY
  7
Standard
  9
$DIMAUNIT
 70
     0
  9
$DIMADEC
 70
     0
  9
$DIMALTRND
 40
0.0
  9
$DIMAZIN
 70
     0
  9
$DIMDSEP
 70
    44
  9
$DIMATFIT
 70
     3
  9
$DIMFRAC
 70
     0
  9
$DIMLDRBLK
  1

  9
$DIMLUNIT
 70
     2
  9
$DIMLWD
 70
    -2
  9
$DIMLWE
 70
    -2
  9
$DIMTMOVE
 70
     0
  9
$LUNITS
 70
     2
  9
$LUPREC
 70
     4
  9
$SKETCHINC
 40
1.0
  9
$FILLETRAD
 40
0.0
  9
$AUNITS
 70
     0
  9
$AUPREC
 70
     0
  9
$MENU
  1
.
  9
$ELEVATION
 40
0.0
  9
$PELEVATION
 40
0.0
  9
$THICKNESS
 40
0.0
  9
$LIMCHECK
 70
     0
  9
$CHAMFERA
 40
0.0
  9
$CHAMFERB
 40
0.0
  9
$CHAMFERC
 40
0.0
  9
$CHAMFERD
 40
0.0
  9
$SKPOLY
 70
     0
  9
$TDCREATE
 40
2454923.594417824
  9
$TDUCREATE
 40
2454923.427751158
  9
$TDUPDATE
 40
2455104.651653877
  9
$TDUUPDATE
 40
2455104.484987210
  9
$TDINDWG
 40
2.4660750694
  9
$TDUSRTIMER
 40
2.4660732639
  9
$USRTIMER
 70
     1
  9
$ANGBASE
 50
0.0
  9
$ANGDIR
 70
     0
  9
$PDMODE
 70
     0
  9
$PDSIZE
 40
0.0
  9
$PLINEWID
 40
0.0
  9
$SPLFRAME
 70
     0
  9
$SPLINETYPE
 70
     6
  9
$SPLINESEGS
 70
     8
  9
$HANDSEED
  5
3F59
  9
$SURFTAB1
 70
     6
  9
$SURFTAB2
 70
     6
  9
$SURFTYPE
 70
     6
  9
$SURFU
 70
     6
  9
$SURFV
 70
     6
  9
$UCSBASE
  2

  9
$UCSNAME
  2

  9
$UCSORG
 10
0.0
 20
0.0
 30
0.0
  9
$UCSXDIR
 10
1.0
 20
0.0
 30
0.0
  9
$UCSYDIR
 10
0.0
 20
1.0
 30
0.0
  9
$UCSORTHOREF
  2

  9
$UCSORTHOVIEW
 70
     0
  9
$UCSORGTOP
 10
0.0
 20
0.0
 30
0.0
  9
$UCSORGBOTTOM
 10
0.0
 20
0.0
 30
0.0
  9
$UCSORGLEFT
 10
0.0
 20
0.0
 30
0.0
  9
$UCSORGRIGHT
 10
0.0
 20
0.0
 30
0.0
  9
$UCSORGFRONT
 10
0.0
 20
0.0
 30
0.0
  9
$UCSORGBACK
 10
0.0
 20
0.0
 30
0.0
  9
$PUCSBASE
  2

  9
$PUCSNAME
  2

  9
$PUCSORG
 10
0.0
 20
0.0
 30
0.0
  9
$PUCSXDIR
 10
1.0
 20
0.0
 30
0.0
  9
$PUCSYDIR
 10
0.0
 20
1.0
 30
0.0
  9
$PUCSORTHOREF
  2

  9
$PUCSORTHOVIEW
 70
     0
  9
$PUCSORGTOP
 10
0.0
 20
0.0
 30
0.0
  9
$PUCSORGBOTTOM
 10
0.0
 20
0.0
 30
0.0
  9
$PUCSORGLEFT
 10
0.0
 20
0.0
 30
0.0
  9
$PUCSORGRIGHT
 10
0.0
 20
0.0
 30
0.0
  9
$PUCSORGFRONT
 10
0.0
 20
0.0
 30
0.0
  9
$PUCSORGBACK
 10
0.0
 20
0.0
 30
0.0
  9
$USERI1
 70
     0
  9
$USERI2
 70
     0
  9
$USERI3
 70
     0
  9
$USERI4
 70
     0
  9
$USERI5
 70
     0
  9
$USERR1
 40
0.0
  9
$USERR2
 40
0.0
  9
$USERR3
 40
0.0
  9
$USERR4
 40
0.0
  9
$USERR5
 40
0.0
  9
$WORLDVIEW
 70
     1
  9
$SHADEDGE
 70
     3
  9
$SHADEDIF
 70
    70
  9
$TILEMODE
 70
     1
  9
$MAXACTVP
 70
    64
  9
$PINSBASE
 10
0.0
 20
0.0
 30
0.0
  9
$PLIMCHECK
 70
     0
  9
$PEXTMIN
 10
0.0
 20
0.0
 30
0.0
  9
$PEXTMAX
 10
0.0
 20
0.0
 30
0.0
  9
$PLIMMIN
 10
0.0
 20
0.0
  9
$PLIMMAX
 10
12.0
 20
9.0
  9
$UNITMODE
 70
     0
  9
$VISRETAIN
 70
     1
  9
$PLINEGEN
 70
     0
  9
$PSLTSCALE
 70
     1
  9
$TREEDEPTH
 70
  3020
  9
$CMLSTYLE
  2
Standard
  9
$CMLJUST
 70
     0
  9
$CMLSCALE
 40
20.0
  9
$PROXYGRAPHICS
 70
     1
  9
$MEASUREMENT
 70
     1
  9
$CELWEIGHT
370
    -1
  9
$ENDCAPS
280
     0
  9
$JOINSTYLE
280
     0
  9
$LWDISPLAY
290
     0
  9
$INSUNITS
 70
     4
  9
$HYPERLINKBASE
  1

  9
$STYLESHEET
  1
acad.ctb
  9
$XEDIT
290
     1
  9
$CEPSNTYPE
380
     0
  9
$PSTYLEMODE
290
     1
  9
$FINGERPRINTGUID
  2
{1B3449FB-3BBE-4904-9171-ADB135FB58F4}
  9
$VERSIONGUID
  2
{60821385-18C6-4829-85C6-DBBDD9997496}
  9
$EXTNAMES
290
     1
  9
$PSVPSCALE
 40
0.0
  9
$OLESTARTUP
290
     0
  9
$SORTENTS
280
   127
  9
$INDEXCTL
280
     0
  9
$HIDETEXT
280
     1
  9
$XCLIPFRAME
290
     0
  9
$HALOGAP
280
     0
  9
$OBSCOLOR
 70
   257
  9
$OBSLTYPE
280
     0
  9
$INTERSECTIONDISPLAY
280
     0
  9
$INTERSECTIONCOLOR
 70
   257
  9
$DIMASSOC
280
     2
  9
$PROJECTNAME
  1

  0
ENDSEC
  0
SECTION
  2
CLASSES
  0
CLASS
  1
ACDBDICTIONARYWDFLT
  2
AcDbDictionaryWithDefault
  3
ObjectDBX Classes
 90
        0
 91
        1
280
     0
281
     0
  0
CLASS
  1
DICTIONARYVAR
  2
AcDbDictionaryVar
  3
ObjectDBX Classes
 90
        0
 91
       11
280
     0
281
     0
  0
CLASS
  1
TABLESTYLE
  2
AcDbTableStyle
  3
ObjectDBX Classes
 90
     4095
 91
        1
280
     0
281
     0
  0
CLASS
  1
MATERIAL
  2
AcDbMaterial
  3
ObjectDBX Classes
 90
     1153
 91
        3
280
     0
281
     0
  0
CLASS
  1
VISUALSTYLE
  2
AcDbVisualStyle
  3
ObjectDBX Classes
 90
     4095
 91
       16
280
     0
281
     0
  0
CLASS
  1
SORTENTSTABLE
  2
AcDbSortentsTable
  3
ObjectDBX Classes
 90
        0
 91
        4
280
     0
281
     0
  0
CLASS
  1
SCALE
  2
AcDbScale
  3
ObjectDBX Classes
 90
     1153
 91
       17
280
     0
281
     0
  0
CLASS
  1
MLEADERSTYLE
  2
AcDbMLeaderStyle
  3
ACDB_MLEADERSTYLE_CLASS
 90
     4095
 91
        1
280
     0
281
     0
  0
CLASS
  1
AEC_REFEDIT_STATUS_TRACKER
  2
AecDbRefEditStatusTracker
  3
AecArchBase50|Product Desc: Autodesk Architectural Desktop 2007 |Company: Autodesk,Inc. |WEB Address: www.autodesk.com
 90
      129
 91
        0
280
     0
281
     0
  0
CLASS
  1
NPOCOLLECTION
  2
AcDbImpNonPersistentObjectsCollection
  3
ObjectDBX Classes
 90
     1153
 91
        0
280
     0
281
     0
  0
CLASS
  1
CELLSTYLEMAP
  2
AcDbCellStyleMap
  3
ObjectDBX Classes
 90
     1152
 91
        4
280
     0
281
     0
  0
CLASS
  1
DIMASSOC
  2
AcDbDimAssoc
  3
"AcDbDimAssoc|Product Desc:     AcDim ARX App For Dimension|Company:          Autodesk, Inc.|WEB Address:      www.autodesk.com"
 90
        0
 91
        2
280
     0
281
     0
  0
ENDSEC
  0
SECTION
  2
TABLES
  0
TABLE
  2
VPORT
  5
8
330
0
100
AcDbSymbolTable
 70
     1
  0
VPORT
  5
EA
330
8
100
AcDbSymbolTableRecord
100
AcDbViewportTableRecord
  2
*Active
 70
     0
 10
0.0
 20
0.0
 11
1.0
 21
1.0
 12
8356.815797505413
 22
-3998.654777429769
 13
0.0
 23
0.0
 14
10.0
 24
10.0
 15
10.0
 25
10.0
 16
0.0
 26
0.0
 36
1.0
 17
0.0
 27
0.0
 37
0.0
 40
2440.11357025948
 41
1.536964980544747
 42
50.0
 43
0.0
 44
0.0
 50
0.0
 51
0.0
 71
     0
 72
  1000
 73
     1
 74
     3
 75
     0
 76
     0
 77
     0
 78
     0
281
     0
 65
     1
110
0.0
120
0.0
130
0.0
111
1.0
121
0.0
131
0.0
112
0.0
122
1.0
132
0.0
 79
     0
146
0.0
  0
ENDTAB
  0
TABLE
  2
LTYPE
  5
5
330
0
100
AcDbSymbolTable
 70
    10
  0
LTYPE
  5
14
330
5
100
AcDbSymbolTableRecord
100
AcDbLinetypeTableRecord
  2
ByBlock
 70
     0
  3

 72
    65
 73
     0
 40
0.0
  0
LTYPE
  5
15
330
5
100
AcDbSymbolTableRecord
100
AcDbLinetypeTableRecord
  2
ByLayer
 70
     0
  3

 72
    65
 73
     0
 40
0.0
  0
LTYPE
  5
16
330
5
100
AcDbSymbolTableRecord
100
AcDbLinetypeTableRecord
  2
Continuous
 70
     0
  3
Solid line
 72
    65
 73
     0
 40
0.0
  0
LTYPE
  5
119
330
5
100
AcDbSymbolTableRecord
100
AcDbLinetypeTableRecord
  2
DOT
 70
     0
  3
Dot . . . . . . . . . . . . . . . . . . . . . .
 72
    65
 73
     2
 40
0.25
 49
0.0
 74
     0
 49
-0.25
 74
     0
  0
LTYPE
  5
192
330
5
100
AcDbSymbolTableRecord
100
AcDbLinetypeTableRecord
  2
Dashed
 70
     0
  3
- - - - - 
 72
    65
 73
     2
 40
0.5644444465637207
 49
0.2822222232818603
 74
     0
 49
-0.2822222232818603
 74
     0
  0
LTYPE
  5
193
330
5
100
AcDbSymbolTableRecord
100
AcDbLinetypeTableRecord
  2
зигзаг
 70
     0
  3
Зигзаг /\/\/\/\/\/\/\/\/\/\/\/\/\/\/\/\/\/\/\/\
 72
    65
 73
     4
 40
20.32254
 49
0.00254
 74
     0
 49
-5.08
 74
     4
 75
   131
340
197
 46
5.08
 50
0.0
 44
-5.08
 45
0.0
 49
-10.16
 74
     4
 75
   131
340
197
 46
5.08
 50
180.0
 44
5.08
 45
0.0
 49
-5.08
 74
     0
  0
LTYPE
  5
1AA
330
5
100
AcDbSymbolTableRecord
100
AcDbLinetypeTableRecord
  2
ACAD_ISO08W100
 70
     0
  3
ISO long-dash short-dash ____ __ ____ __ ____ _
 72
    65
 73
     4
 40
36.0
 49
24.0
 74
     0
 49
-3.0
 74
     0
 49
6.0
 74
     0
 49
-3.0
 74
     0
  0
LTYPE
  5
1056
330
5
100
AcDbSymbolTableRecord
100
AcDbLinetypeTableRecord
  2
CENTER2
 70
     0
  3
___ _ ___ _ ___ _ ___ _ ___ _ ___ _ ___ _ ___ _
 72
    65
 73
     4
 40
1.125
 49
0.75
 74
     0
 49
-0.125
 74
     0
 49
0.125
 74
     0
 49
-0.125
 74
     0
  0
LTYPE
  5
10FF
330
5
100
AcDbSymbolTableRecord
100
AcDbLinetypeTableRecord
  2
CENTERX2
 70
     0
  3
Center (2x) ________  __  ________  __  _____
 72
    65
 73
     4
 40
101.6
 49
63.5
 74
     0
 49
-12.7
 74
     0
 49
12.7
 74
     0
 49
-12.7
 74
     0
  0
LTYPE
  5
2725
330
5
100
AcDbSymbolTableRecord
100
AcDbLinetypeTableRecord
  2
HIDDEN2
 70
     0
  3
_ _ _ _ _ _ _ _ _ _ _ _ _ _ _ _ _ _ _ _ _ _ _ _
 72
    65
 73
     2
 40
4.762499999999999
 49
3.174999999999999
 74
     0
 49
-1.587499999999999
 74
     0
  0
ENDTAB
  0
TABLE
  2
LAYER
  5
2
102
{ACAD_XDICTIONARY
360
15C
102
}
330
0
100
AcDbSymbolTable
 70
    18
  0
LAYER
  5
10
102
{ACAD_XDICTIONARY
360
7C2
102
}
330
2
100
AcDbSymbolTableRecord
100
AcDbLayerTableRecord
  2
0
 70
     0
 62
     7
  6
Continuous
370
    -3
390
F
  0
LAYER
  5
156
102
{ACAD_XDICTIONARY
360
7C4
102
}
330
2
100
AcDbSymbolTableRecord
100
AcDbLayerTableRecord
  2
тр-вод
 70
     0
 62
   253
  6
Continuous
370
    13
390
F
1001
AcAecLayerStandard
1000

1000

  0
LAYER
  5
158
102
{ACAD_XDICTIONARY
360
7C6
102
}
330
2
100
AcDbSymbolTableRecord
100
AcDbLayerTableRecord
  2
корпус фильтра
 70
     0
 62
     7
  6
Continuous
370
    30
390
F
1001
AcAecLayerStandard
1000

1000

  0
LAYER
  5
159
102
{ACAD_XDICTIONARY
360
7C8
102
}
330
2
100
AcDbSymbolTableRecord
100
AcDbLayerTableRecord
  2
фильтроэлемент
 70
     0
 62
   104
  6
Dashed
370
    30
390
F
1001
AcAecLayerStandard
1000

1000

  0
LAYER
  5
15F
102
{ACAD_XDICTIONARY
360
7CA
102
}
330
2
100
AcDbSymbolTableRecord
100
AcDbLayerTableRecord
  2
диафрагма
 70
     0
 62
     1
  6
Continuous
370
    30
390
F
1001
AcAecLayerStandard
1000

1000

  0
LAYER
  5
194
102
{ACAD_XDICTIONARY
360
7CC
102
}
330
2
100
AcDbSymbolTableRecord
100
AcDbLayerTableRecord
  2
Equipment
 70
     0
 62
   146
  6
Continuous
370
    35
390
F
1001
AcAecLayerStandard
1000

1000

1001
RAK
1000
{ACET-LAYISO
1070
     0
1070
   146
1000
Continuous
1071
       40
1071
        1
1005
F
1000
ACET-LAYISO}
  0
LAYER
  5
1B1
102
{ACAD_XDICTIONARY
360
7CE
102
}
330
2
100
AcDbSymbolTableRecord
100
AcDbLayerTableRecord
  2
текст
 70
     0
 62
     7
  6
Continuous
370
    -3
390
F
1001
AcAecLayerStandard
1000

1000

  0
LAYER
  5
1B4
102
{ACAD_XDICTIONARY
360
7D0
102
}
330
2
100
AcDbSymbolTableRecord
100
AcDbLayerTableRecord
  2
В5
 70
     0
 62
     7
  6
Continuous
370
    -3
390
F
1001
AcAecLayerStandard
1000

1000

  0
LAYER
  5
1CD
102
{ACAD_XDICTIONARY
360
7D2
102
}
330
2
100
AcDbSymbolTableRecord
100
AcDbLayerTableRecord
  2
вода
 70
     0
 62
     5
  6
Continuous
370
    25
390
F
1001
AcAecLayerStandard
1000

1000

  0
LAYER
  5
B90
330
2
100
AcDbSymbolTableRecord
100
AcDbLayerTableRecord
  2
расширительный
 70
     0
 62
     7
  6
Continuous
370
    30
390
F
1001
AcAecLayerStandard
1000

1000

  0
LAYER
  5
1057
330
2
100
AcDbSymbolTableRecord
100
AcDbLayerTableRecord
  2
Теплосна
 70
     0
 62
   220
  6
Continuous
370
    40
390
F
1001
AcAecLayerStandard
1000

1000

  0
LAYER
  5
1100
330
2
100
AcDbSymbolTableRecord
100
AcDbLayerTableRecord
  2
Center
 70
     0
 62
     7
  6
CENTERX2
370
    -3
390
F
  0
LAYER
  5
1101
330
2
100
AcDbSymbolTableRecord
100
AcDbLayerTableRecord
  2
Grundfos
 70
     0
 62
     5
  6
Continuous
370
    -3
390
F
  0
LAYER
  5
16E6
330
2
100
AcDbSymbolTableRecord
100
AcDbLayerTableRecord
  2
DIM
 70
     0
 62
     1
  6
Continuous
370
    -3
390
F
  0
LAYER
  5
16E7
330
2
100
AcDbSymbolTableRecord
100
AcDbLayerTableRecord
  2
DEFPOINTS
 70
     0
 62
     7
  6
Continuous
290
     0
370
    -3
390
F
  0
LAYER
  5
2726
330
2
100
AcDbSymbolTableRecord
100
AcDbLayerTableRecord
  2
HATCH
 70
     0
 62
     3
  6
Continuous
370
    -3
390
F
  0
LAYER
  5
3A95
330
2
100
AcDbSymbolTableRecord
100
AcDbLayerTableRecord
  2
Вентиляция вытяжка
 70
     0
 62
     5
  6
Continuous
370
    40
390
F
1001
AcAecLayerStandard
1000

1000

  0
LAYER
  5
3A96
330
2
100
AcDbSymbolTableRecord
100
AcDbLayerTableRecord
  2
В35
 70
     0
 62
     7
  6
Continuous
370
    -3
390
F
1001
AcAecLayerStandard
1000

1000

  0
ENDTAB
  0
TABLE
  2
STYLE
  5
3
330
0
100
AcDbSymbolTable
 70
     8
  0
STYLE
  5
11
330
3
100
AcDbSymbolTableRecord
100
AcDbTextStyleTableRecord
  2
Standard
 70
     0
 40
0.0
 41
1.0
 50
0.0
 71
     0
 42
2.5
  3
txt
  4

  0
STYLE
  5
195
330
3
100
AcDbSymbolTableRecord
100
AcDbTextStyleTableRecord
  2
romant
 70
     0
 40
0.0
 41
0.8
 50
0.0
 71
     0
 42
14.0
  3
romant.shx
  4

  0
STYLE
  5
196
330
3
100
AcDbSymbolTableRecord
100
AcDbTextStyleTableRecord
  2
СИС
 70
     0
 40
200.0
 41
1.0
 50
15.0
 71
     0
 42
200.0
  3
txt.shx
  4

  0
STYLE
  5
197
330
3
100
AcDbSymbolTableRecord
100
AcDbTextStyleTableRecord
  2

 70
     1
 40
0.0
 41
1.0
 50
0.0
 71
     0
 42
2.5
  3
ltypeshp.shx
  4

  0
STYLE
  5
1B5
330
3
100
AcDbSymbolTableRecord
100
AcDbTextStyleTableRecord
  2
Гост А 150
 70
     0
 40
150.0
 41
0.8
 50
15.0
 71
     0
 42
150.0
  3

  4

1001
ACAD
1000
GOST type A
1071
       34
  0
STYLE
  5
1058
330
3
100
AcDbSymbolTableRecord
100
AcDbTextStyleTableRecord
  2
Гост А 250
 70
     0
 40
250.0
 41
0.8
 50
15.0
 71
     0
 42
250.0
  3

  4

1001
ACAD
1000
GOST type A
1071
       34
  0
STYLE
  5
1059
330
3
100
AcDbSymbolTableRecord
100
AcDbTextStyleTableRecord
  2
Размер 50
 70
     0
 40
50.0
 41
0.8
 50
15.0
 71
     0
 42
50.0
  3

  4

1001
ACAD
1000
GOST type A
1071
       34
  0
STYLE
  5
16E8
330
3
100
AcDbSymbolTableRecord
100
AcDbTextStyleTableRecord
  2
ESKD
 70
     0
 40
0.0
 41
1.0
 50
15.0
 71
     0
 42
2.0
  3
eskdu.shx
  4

  0
ENDTAB
  0
TABLE
  2
VIEW
  5
6
330
0
100
AcDbSymbolTable
 70
     1
  0
ENDTAB
  0
TABLE
  2
UCS
  5
7
330
0
100
AcDbSymbolTable
 70
     0
  0
ENDTAB
  0
TABLE
  2
APPID
  5
9
330
0
100
AcDbSymbolTable
 70
     8
  0
APPID
  5
12
330
9
100
AcDbSymbolTableRecord
100
AcDbRegAppTableRecord
  2
ACAD
 70
     0
  0
APPID
  5
9E
330
9
100
AcDbSymbolTableRecord
100
AcDbRegAppTableRecord
  2
ACAD_PSEXT
 70
     0
  0
APPID
  5
110
330
9
100
AcDbSymbolTableRecord
100
AcDbRegAppTableRecord
  2
ACAD_EXEMPT_FROM_CAD_STANDARDS
 70
     0
  0
APPID
  5
157
330
9
100
AcDbSymbolTableRecord
100
AcDbRegAppTableRecord
  2
AcAecLayerStandard
 70
     0
  0
APPID
  5
19B
330
9
100
AcDbSymbolTableRecord
100
AcDbRegAppTableRecord
  2
RAK
 70
     0
  0
APPID
  5
19C
330
9
100
AcDbSymbolTableRecord
100
AcDbRegAppTableRecord
  2
ACAD_DSTYLE_DIMJOGGED_JOGANGLE_SYMBOL
 70
     0
  0
APPID
  5
632
330
9
100
AcDbSymbolTableRecord
100
AcDbRegAppTableRecord
  2
ACAD_MLEADERVER
 70
     0
  0
APPID
  5
3F58
330
9
100
AcDbSymbolTableRecord
100
AcDbRegAppTableRecord
  2
ACAD_DSTYLE_DIMEXT_LENGTH
 70
     0
  0
ENDTAB
  0
TABLE
  2
DIMSTYLE
  5
A
330
0
100
AcDbSymbolTable
 70
    12
100
AcDbDimStyleTable
 71
     1
340
27
  0
DIMSTYLE
105
27
330
A
100
AcDbSymbolTableRecord
100
AcDbDimStyleTableRecord
  2
ISO-25
 70
     0
 41
2.5
 42
0.625
 43
3.75
 44
1.25
 73
     0
 74
     0
 77
     1
 78
     8
140
2.5
141
2.5
143
0.03937007874016
147
0.625
171
     3
172
     1
271
     2
272
     2
274
     3
278
    44
283
     0
284
     8
340
11
  0
DIMSTYLE
105
198
330
A
100
AcDbSymbolTableRecord
100
AcDbDimStyleTableRecord
  2
Copy(2) of ISO-25ккк
 70
     0
 41
29.0
 42
0.625
 43
3.75
 44
1.25
 73
     0
 74
     0
 77
     1
 78
     8
140
50.0
141
30.0
143
0.03937007874016
147
30.625
171
     3
172
     1
178
   256
179
     4
271
     0
272
     0
274
     3
278
    44
283
     0
284
     8
340
11
341
186
342
186
1001
ACAD_DSTYLE_DIMEXT_LENGTH
1070
   378
1040
1.25
1001
ACAD_DSTYLE_DIMJOGGED_JOGANGLE_SYMBOL
1070
   384
1040
0.6981317007977319
  0
DIMSTYLE
105
199
330
A
100
AcDbSymbolTableRecord
100
AcDbDimStyleTableRecord
  2
SPDS
 70
     0
 40
100.0
 41
2.0
 42
3.0
 43
2.0
 44
2.0
 45
0.001
 46
2.0
 73
     0
 74
     0
 77
     1
 78
     8
 79
     2
140
2.0
141
2.5
146
0.75
147
0.625
172
     1
271
     0
272
     0
278
    44
279
     1
284
     8
340
195
342
18C
1001
ACAD_DSTYLE_DIMEXT_LENGTH
1070
   378
1040
1.25
1001
ACAD_DSTYLE_DIMJOGGED_JOGANGLE_SYMBOL
1070
   384
1040
1.570796326794896
  0
DIMSTYLE
105
19A
330
A
100
AcDbSymbolTableRecord
100
AcDbDimStyleTableRecord
  2
СИС
 70
     0
 40
0.0
 41
150.0
 42
0.625
 43
3.75
 44
1.25
 48
0.000000001
 73
     0
 74
     0
 77
     1
 78
     8
140
120.0
141
2.5
143
0.0394
147
100.0
171
     4
172
     1
176
     3
177
     3
178
     7
271
     0
272
     0
273
     8
274
     4
340
196
341
18C
342
18C
  0
DIMSTYLE
105
105A
330
A
100
AcDbSymbolTableRecord
100
AcDbDimStyleTableRecord
  2
STANDARD
 70
     0
 73
     0
 74
     0
140
0.2
147
0.1
173
     1
176
     3
177
     3
178
     2
340
11
341
18C
343
18C
344
18C
  0
DIMSTYLE
105
105B
330
A
100
AcDbSymbolTableRecord
100
AcDbDimStyleTableRecord
  2
Гост А 150
 70
     0
 41
60.0
 42
0.0
 43
3.75
 44
10.0
 73
     0
 74
     0
 77
     1
 78
     8
140
150.0
141
30.0
143
0.03937007874016
147
25.0
171
     3
172
     1
271
     0
272
     0
274
     3
278
    44
283
     0
284
     8
340
1B5
1001
ACAD_DSTYLE_DIMEXT_LENGTH
1070
   378
1040
10.0
1001
ACAD_DSTYLE_DIMJOGGED_JOGANGLE_SYMBOL
1070
   384
1040
1.570796326794896
  0
DIMSTYLE
105
105C
330
A
100
AcDbSymbolTableRecord
100
AcDbDimStyleTableRecord
  2
Гост А 250
 70
     0
 41
150.0
 42
0.0
 43
3.75
 44
90.0
 46
80.0
 73
     0
 74
     0
 77
     1
 78
     8
140
200.0
141
30.0
143
0.03937007874016
147
65.0
171
     3
172
     1
271
     0
272
     0
274
     3
278
    44
283
     0
284
     8
340
1058
342
18C
1001
ACAD_DSTYLE_DIMEXT_LENGTH
1070
   378
1040
10.0
1001
ACAD_DSTYLE_DIMJOGGED_JOGANGLE_SYMBOL
1070
   384
1040
1.570796326794896
  0
DIMSTYLE
105
105D
330
A
100
AcDbSymbolTableRecord
100
AcDbDimStyleTableRecord
  2
Гост 100
 70
     0
 41
60.0
 42
0.0
 43
3.75
 44
10.0
 73
     0
 74
     0
 77
     1
 78
     8
140
70.0
141
30.0
143
0.03937007874016
147
15.0
171
     3
172
     1
271
     0
272
     0
274
     3
278
    44
283
     0
284
     8
340
1059
1001
ACAD_DSTYLE_DIMEXT_LENGTH
1070
   378
1040
10.0
1001
ACAD_DSTYLE_DIMJOGGED_JOGANGLE_SYMBOL
1070
   384
1040
1.570796326794896
  0
DIMSTYLE
105
16E9
330
A
100
AcDbSymbolTableRecord
100
AcDbDimStyleTableRecord
  2
DIA_1
 70
     0
  4
ction
 41
5.0
 42
0.0
 43
8.0
 44
2.0
 73
     0
 74
     0
 77
     1
140
3.5
141
-3.0
147
0.0
172
     1
176
   256
177
   256
178
   256
271
     1
272
     1
275
     1
279
     2
340
16E8
1001
ACAD_DSTYLE_DIMJOGGED_JOGANGLE_SYMBOL
1070
   384
1040
0.7853981633974483
1001
ACAD_DSTYLE_DIMEXT_LENGTH
1070
   378
1040
2.0
  0
DIMSTYLE
105
2727
330
A
100
AcDbSymbolTableRecord
100
AcDbDimStyleTableRecord
  2
10
 70
     0
  4
ction
 40
0.0
 41
5.0
 42
0.0
 43
1.0
 44
2.0
 73
     0
 74
     0
 77
     1
 78
    12
140
3.5
141
-3.0
144
10.0
146
0.5714285714285714
147
1.0
172
     1
176
   256
177
   256
178
   256
271
     1
272
     1
275
     1
279
     2
340
16E8
  0
DIMSTYLE
105
2728
330
A
100
AcDbSymbolTableRecord
100
AcDbDimStyleTableRecord
  2
2
 70
     0
  4
ction
 40
0.0
 41
5.0
 42
0.0
 43
8.0
 44
2.0
 73
     0
 74
     0
 77
     1
 78
    12
140
3.5
141
-3.0
144
2.0
146
0.5714285714285714
147
0.0
172
     1
176
   256
177
   256
178
   256
271
     1
272
     1
275
     1
279
     2
340
16E8
  0
ENDTAB
  0
TABLE
  2
BLOCK_RECORD
  5
1
330
0
100
AcDbSymbolTable
 70
    86
  0
BLOCK_RECORD
  5
1F
102
{ACAD_XDICTIONARY
360
12F
102
}
330
1
100
AcDbSymbolTableRecord
100
AcDbBlockTableRecord
  2
*Model_Space
340
22
  0
BLOCK_RECORD
  5
D2
330
1
100
AcDbSymbolTableRecord
100
AcDbBlockTableRecord
  2
*Paper_Space
340
D3
  0
BLOCK_RECORD
  5
D6
330
1
100
AcDbSymbolTableRecord
100
AcDbBlockTableRecord
  2
*Paper_Space0
340
D7
  0
BLOCK_RECORD
  5
186
102
{ACAD_XDICTIONARY
360
187
102
}
330
1
100
AcDbSymbolTableRecord
100
AcDbBlockTableRecord
  2
_ArchTick
340
0
  0
BLOCK_RECORD
  5
18C
102
{ACAD_XDICTIONARY
360
18D
102
}
330
1
100
AcDbSymbolTableRecord
100
AcDbBlockTableRecord
  2
_Oblique
340
0
  0
BLOCK_RECORD
  5
1E6B
102
{ACAD_XDICTIONARY
360
1E6F
102
}
330
1
100
AcDbSymbolTableRecord
100
AcDbBlockTableRecord
  2
A$C0F1246A6
340
0
1001
ACAD
1000
DesignCenter Data
1002
{
1070
     1
1070
     4
1002
}
  0
BLOCK_RECORD
  5
2333
330
1
100
AcDbSymbolTableRecord
100
AcDbBlockTableRecord
  2
*X4
340
0
  0
BLOCK_RECORD
  5
3191
330
1
100
AcDbSymbolTableRecord
100
AcDbBlockTableRecord
  2
*D5
340
0
  0
BLOCK_RECORD
  5
319D
330
1
100
AcDbSymbolTableRecord
100
AcDbBlockTableRecord
  2
*D6
340
0
  0
BLOCK_RECORD
  5
31A9
330
1
100
AcDbSymbolTableRecord
100
AcDbBlockTableRecord
  2
*D7
340
0
  0
BLOCK_RECORD
  5
31B7
330
1
100
AcDbSymbolTableRecord
100
AcDbBlockTableRecord
  2
*D8
340
0
  0
BLOCK_RECORD
  5
31C3
330
1
100
AcDbSymbolTableRecord
100
AcDbBlockTableRecord
  2
*D9
340
0
  0
BLOCK_RECORD
  5
31CF
330
1
100
AcDbSymbolTableRecord
100
AcDbBlockTableRecord
  2
*D10
340
0
  0
BLOCK_RECORD
  5
31DB
330
1
100
AcDbSymbolTableRecord
100
AcDbBlockTableRecord
  2
*D11
340
0
  0
BLOCK_RECORD
  5
31E7
330
1
100
AcDbSymbolTableRecord
100
AcDbBlockTableRecord
  2
*D12
340
0
  0
BLOCK_RECORD
  5
31F3
330
1
100
AcDbSymbolTableRecord
100
AcDbBlockTableRecord
  2
*D13
340
0
  0
BLOCK_RECORD
  5
31FF
330
1
100
AcDbSymbolTableRecord
100
AcDbBlockTableRecord
  2
*D14
340
0
  0
BLOCK_RECORD
  5
320D
330
1
100
AcDbSymbolTableRecord
100
AcDbBlockTableRecord
  2
*D15
340
0
  0
BLOCK_RECORD
  5
3219
330
1
100
AcDbSymbolTableRecord
100
AcDbBlockTableRecord
  2
*D16
340
0
  0
BLOCK_RECORD
  5
3225
330
1
100
AcDbSymbolTableRecord
100
AcDbBlockTableRecord
  2
*D17
340
0
  0
BLOCK_RECORD
  5
3231
330
1
100
AcDbSymbolTableRecord
100
AcDbBlockTableRecord
  2
*D18
340
0
  0
BLOCK_RECORD
  5
323D
330
1
100
AcDbSymbolTableRecord
100
AcDbBlockTableRecord
  2
*D19
340
0
  0
BLOCK_RECORD
  5
3249
330
1
100
AcDbSymbolTableRecord
100
AcDbBlockTableRecord
  2
*D20
340
0
  0
BLOCK_RECORD
  5
3255
330
1
100
AcDbSymbolTableRecord
100
AcDbBlockTableRecord
  2
*D21
340
0
  0
BLOCK_RECORD
  5
3263
330
1
100
AcDbSymbolTableRecord
100
AcDbBlockTableRecord
  2
*D22
340
0
  0
BLOCK_RECORD
  5
326F
330
1
100
AcDbSymbolTableRecord
100
AcDbBlockTableRecord
  2
*D23
340
0
  0
BLOCK_RECORD
  5
327B
330
1
100
AcDbSymbolTableRecord
100
AcDbBlockTableRecord
  2
*D24
340
0
  0
BLOCK_RECORD
  5
3287
330
1
100
AcDbSymbolTableRecord
100
AcDbBlockTableRecord
  2
*D25
340
0
  0
BLOCK_RECORD
  5
3295
330
1
100
AcDbSymbolTableRecord
100
AcDbBlockTableRecord
  2
*D26
340
0
  0
BLOCK_RECORD
  5
32A1
330
1
100
AcDbSymbolTableRecord
100
AcDbBlockTableRecord
  2
*D27
340
0
  0
BLOCK_RECORD
  5
32AD
330
1
100
AcDbSymbolTableRecord
100
AcDbBlockTableRecord
  2
*D28
340
0
  0
BLOCK_RECORD
  5
32B9
330
1
100
AcDbSymbolTableRecord
100
AcDbBlockTableRecord
  2
*D29
340
0
  0
BLOCK_RECORD
  5
32C7
330
1
100
AcDbSymbolTableRecord
100
AcDbBlockTableRecord
  2
*D30
340
0
  0
BLOCK_RECORD
  5
32D5
330
1
100
AcDbSymbolTableRecord
100
AcDbBlockTableRecord
  2
*D31
340
0
  0
BLOCK_RECORD
  5
32E1
330
1
100
AcDbSymbolTableRecord
100
AcDbBlockTableRecord
  2
*D32
340
0
  0
BLOCK_RECORD
  5
32ED
330
1
100
AcDbSymbolTableRecord
100
AcDbBlockTableRecord
  2
*D33
340
0
  0
BLOCK_RECORD
  5
32F9
330
1
100
AcDbSymbolTableRecord
100
AcDbBlockTableRecord
  2
*D34
340
0
  0
BLOCK_RECORD
  5
3305
330
1
100
AcDbSymbolTableRecord
100
AcDbBlockTableRecord
  2
*D35
340
0
  0
BLOCK_RECORD
  5
3311
330
1
100
AcDbSymbolTableRecord
100
AcDbBlockTableRecord
  2
*D36
340
0
  0
BLOCK_RECORD
  5
331D
330
1
100
AcDbSymbolTableRecord
100
AcDbBlockTableRecord
  2
*D37
340
0
  0
BLOCK_RECORD
  5
3329
330
1
100
AcDbSymbolTableRecord
100
AcDbBlockTableRecord
  2
*D38
340
0
  0
BLOCK_RECORD
  5
3335
330
1
100
AcDbSymbolTableRecord
100
AcDbBlockTableRecord
  2
*D39
340
0
  0
BLOCK_RECORD
  5
3341
330
1
100
AcDbSymbolTableRecord
100
AcDbBlockTableRecord
  2
*D40
340
0
  0
BLOCK_RECORD
  5
334D
330
1
100
AcDbSymbolTableRecord
100
AcDbBlockTableRecord
  2
*D41
340
0
  0
BLOCK_RECORD
  5
335B
330
1
100
AcDbSymbolTableRecord
100
AcDbBlockTableRecord
  2
*D42
340
0
  0
BLOCK_RECORD
  5
3367
330
1
100
AcDbSymbolTableRecord
100
AcDbBlockTableRecord
  2
*D43
340
0
  0
BLOCK_RECORD
  5
3373
330
1
100
AcDbSymbolTableRecord
100
AcDbBlockTableRecord
  2
*D44
340
0
  0
BLOCK_RECORD
  5
337F
330
1
100
AcDbSymbolTableRecord
100
AcDbBlockTableRecord
  2
*D45
340
0
  0
BLOCK_RECORD
  5
338B
330
1
100
AcDbSymbolTableRecord
100
AcDbBlockTableRecord
  2
*D46
340
0
  0
BLOCK_RECORD
  5
3397
330
1
100
AcDbSymbolTableRecord
100
AcDbBlockTableRecord
  2
*D47
340
0
  0
BLOCK_RECORD
  5
33A3
330
1
100
AcDbSymbolTableRecord
100
AcDbBlockTableRecord
  2
*D48
340
0
  0
BLOCK_RECORD
  5
33AF
330
1
100
AcDbSymbolTableRecord
100
AcDbBlockTableRecord
  2
*D49
340
0
  0
BLOCK_RECORD
  5
33BB
330
1
100
AcDbSymbolTableRecord
100
AcDbBlockTableRecord
  2
*D50
340
0
  0
BLOCK_RECORD
  5
33C9
330
1
100
AcDbSymbolTableRecord
100
AcDbBlockTableRecord
  2
*D51
340
0
  0
BLOCK_RECORD
  5
33D5
330
1
100
AcDbSymbolTableRecord
100
AcDbBlockTableRecord
  2
*D52
340
0
  0
BLOCK_RECORD
  5
33E1
330
1
100
AcDbSymbolTableRecord
100
AcDbBlockTableRecord
  2
*D53
340
0
  0
BLOCK_RECORD
  5
33ED
330
1
100
AcDbSymbolTableRecord
100
AcDbBlockTableRecord
  2
*D54
340
0
  0
BLOCK_RECORD
  5
33F9
330
1
100
AcDbSymbolTableRecord
100
AcDbBlockTableRecord
  2
*D55
340
0
  0
BLOCK_RECORD
  5
3405
330
1
100
AcDbSymbolTableRecord
100
AcDbBlockTableRecord
  2
*D56
340
0
  0
BLOCK_RECORD
  5
3411
330
1
100
AcDbSymbolTableRecord
100
AcDbBlockTableRecord
  2
*D57
340
0
  0
BLOCK_RECORD
  5
341D
330
1
100
AcDbSymbolTableRecord
100
AcDbBlockTableRecord
  2
*D58
340
0
  0
BLOCK_RECORD
  5
342B
330
1
100
AcDbSymbolTableRecord
100
AcDbBlockTableRecord
  2
*D59
340
0
  0
BLOCK_RECORD
  5
3445
330
1
100
AcDbSymbolTableRecord
100
AcDbBlockTableRecord
  2
*D60
340
0
  0
BLOCK_RECORD
  5
3469
330
1
100
AcDbSymbolTableRecord
100
AcDbBlockTableRecord
  2
*D61
340
0
  0
BLOCK_RECORD
  5
3477
330
1
100
AcDbSymbolTableRecord
100
AcDbBlockTableRecord
  2
*D62
340
0
  0
BLOCK_RECORD
  5
3483
330
1
100
AcDbSymbolTableRecord
100
AcDbBlockTableRecord
  2
*D63
340
0
  0
BLOCK_RECORD
  5
348F
330
1
100
AcDbSymbolTableRecord
100
AcDbBlockTableRecord
  2
*D64
340
0
  0
BLOCK_RECORD
  5
349B
330
1
100
AcDbSymbolTableRecord
100
AcDbBlockTableRecord
  2
*D65
340
0
  0
BLOCK_RECORD
  5
34A7
330
1
100
AcDbSymbolTableRecord
100
AcDbBlockTableRecord
  2
*D66
340
0
  0
BLOCK_RECORD
  5
34B3
330
1
100
AcDbSymbolTableRecord
100
AcDbBlockTableRecord
  2
*D67
340
0
  0
BLOCK_RECORD
  5
34DB
330
1
100
AcDbSymbolTableRecord
100
AcDbBlockTableRecord
  2
*D68
340
0
  0
BLOCK_RECORD
  5
34E9
330
1
100
AcDbSymbolTableRecord
100
AcDbBlockTableRecord
  2
*D69
340
0
  0
BLOCK_RECORD
  5
34F5
330
1
100
AcDbSymbolTableRecord
100
AcDbBlockTableRecord
  2
*D70
340
0
  0
BLOCK_RECORD
  5
3501
330
1
100
AcDbSymbolTableRecord
100
AcDbBlockTableRecord
  2
*D71
340
0
  0
BLOCK_RECORD
  5
350D
330
1
100
AcDbSymbolTableRecord
100
AcDbBlockTableRecord
  2
*D72
340
0
  0
BLOCK_RECORD
  5
3519
330
1
100
AcDbSymbolTableRecord
100
AcDbBlockTableRecord
  2
*D73
340
0
  0
BLOCK_RECORD
  5
3525
330
1
100
AcDbSymbolTableRecord
100
AcDbBlockTableRecord
  2
*D74
340
0
  0
BLOCK_RECORD
  5
3531
330
1
100
AcDbSymbolTableRecord
100
AcDbBlockTableRecord
  2
*D75
340
0
  0
BLOCK_RECORD
  5
353D
330
1
100
AcDbSymbolTableRecord
100
AcDbBlockTableRecord
  2
*D76
340
0
  0
BLOCK_RECORD
  5
354B
330
1
100
AcDbSymbolTableRecord
100
AcDbBlockTableRecord
  2
*D77
340
0
  0
BLOCK_RECORD
  5
3A0E
330
1
100
AcDbSymbolTableRecord
100
AcDbBlockTableRecord
  2
*D78
340
0
  0
BLOCK_RECORD
  5
3A4C
330
1
100
AcDbSymbolTableRecord
100
AcDbBlockTableRecord
  2
*D79
340
0
  0
BLOCK_RECORD
  5
3E24
330
1
100
AcDbSymbolTableRecord
100
AcDbBlockTableRecord
  2
*D80
340
0
  0
BLOCK_RECORD
  5
3E30
330
1
100
AcDbSymbolTableRecord
100
AcDbBlockTableRecord
  2
*D81
340
0
  0
ENDTAB
  0
ENDSEC
  0
SECTION
  2
BLOCKS
  0
BLOCK
  5
20
330
1F
100
AcDbEntity
  8
0
100
AcDbBlockBegin
  2
*Model_Space
 70
     0
 10
0.0
 20
0.0
 30
0.0
  3
*Model_Space
  1

  0
ENDBLK
  5
21
330
1F
100
AcDbEntity
  8
0
100
AcDbBlockEnd
  0
BLOCK
  5
D4
330
D2
100
AcDbEntity
 67
     1
  8
0
100
AcDbBlockBegin
  2
*Paper_Space
 70
     0
 10
0.0
 20
0.0
 30
0.0
  3
*Paper_Space
  1

  0
ENDBLK
  5
D5
330
D2
100
AcDbEntity
 67
     1
  8
0
100
AcDbBlockEnd
  0
BLOCK
  5
D8
330
D6
100
AcDbEntity
 67
     1
  8
0
100
AcDbBlockBegin
  2
*Paper_Space0
 70
     0
 10
0.0
 20
0.0
 30
0.0
  3
*Paper_Space0
  1

  0
ENDBLK
  5
D9
330
D6
100
AcDbEntity
 67
     1
  8
0
100
AcDbBlockEnd
  0
BLOCK
  5
189
330
186
100
AcDbEntity
  8
0
100
AcDbBlockBegin
  2
_ArchTick
 70
     0
 10
0.0
 20
0.0
 30
0.0
  3
_ArchTick
  1

  0
LWPOLYLINE
  5
18A
330
186
100
AcDbEntity
  8
0
  6
ByBlock
 62
     0
100
AcDbPolyline
 90
        2
 70
     0
 43
0.15
 10
-0.5
 20
-0.5
 10
0.5
 20
0.5
  0
ENDBLK
  5
18B
330
186
100
AcDbEntity
  8
0
100
AcDbBlockEnd
  0
BLOCK
  5
18F
330
18C
100
AcDbEntity
  8
0
 48
40.0
100
AcDbBlockBegin
  2
_Oblique
 70
     0
 10
0.0
 20
0.0
 30
0.0
  3
_Oblique
  1

  0
LINE
  5
190
330
18C
100
AcDbEntity
  8
0
  6
ByBlock
 62
     0
370
    -2
100
AcDbLine
 10
-0.5
 20
-0.5
 30
0.0
 11
0.5
 21
0.5
 31
0.0
  0
ENDBLK
  5
191
330
18C
100
AcDbEntity
  8
0
 48
40.0
100
AcDbBlockEnd
  0
BLOCK
  5
1E71
330
1E6B
100
AcDbEntity
  8
0
100
AcDbBlockBegin
  2
A$C0F1246A6
 70
     0
 10
0.0
 20
0.0
 30
0.0
  3
A$C0F1246A6
  1

  0
LINE
  5
1E6C
330
1E6B
100
AcDbEntity
  8
вода
100
AcDbLine
 10
-81.47997173182739
 20
0.9222727452206527
 30
0.0
 11
-81.47997173182739
 21
59.31391199245172
 31
0.0
  0
LINE
  5
1E6D
330
1E6B
100
AcDbEntity
  8
вода
100
AcDbLine
 10
-81.47997173182739
 20
59.31391199245172
 30
0.0
 11
-74.66804911681174
 21
39.3447966727681
 31
0.0
  0
LINE
  5
1E6E
330
1E6B
100
AcDbEntity
  8
вода
100
AcDbLine
 10
-81.47997173182739
 20
59.31391199245172
 30
0.0
 11
-88.29189434684304
 21
39.3447966727681
 31
0.0
  0
ENDBLK
  5
1E72
330
1E6B
100
AcDbEntity
  8
0
100
AcDbBlockEnd
  0
BLOCK
  5
2334
330
2333
100
AcDbEntity
  8
0
100
AcDbBlockBegin
  2
*X4
 70
     1
 10
0.0
 20
0.0
 30
0.0
  3
*X4
  1
AME_SOL
  0
LINE
  5
2335
330
2333
100
AcDbEntity
  8
0
 62
     0
100
AcDbLine
 10
429.0707470908103
 20
326.9203337136488
 30
0.0
 11
429.7222381169385
 21
327.5718247397769
 31
0.0
  0
LINE
  5
2336
330
2333
100
AcDbEntity
  8
0
 62
     0
100
AcDbLine
 10
427.9482150756767
 20
326.9203337136488
 30
0.0
 11
429.7222381169385
 21
328.6943567549105
 31
0.0
  0
LINE
  5
2337
330
2333
100
AcDbEntity
  8
0
 62
     0
100
AcDbLine
 10
426.825683060543
 20
326.9203337136488
 30
0.0
 11
428.825683060543
 21
328.9203337136488
 31
0.0
  0
LINE
  5
2338
330
2333
100
AcDbEntity
  8
0
 62
     0
100
AcDbLine
 10
425.7031510454094
 20
326.9203337136488
 30
0.0
 11
427.7031510454094
 21
328.9203337136488
 31
0.0
  0
LINE
  5
2339
330
2333
100
AcDbEntity
  8
0
 62
     0
100
AcDbLine
 10
424.5806190302757
 20
326.9203337136488
 30
0.0
 11
426.5806190302757
 21
328.9203337136488
 31
0.0
  0
LINE
  5
233A
330
2333
100
AcDbEntity
  8
0
 62
     0
100
AcDbLine
 10
423.4580870151421
 20
326.9203337136488
 30
0.0
 11
425.458087015142
 21
328.9203337136488
 31
0.0
  0
LINE
  5
233B
330
2333
100
AcDbEntity
  8
0
 62
     0
100
AcDbLine
 10
422.3355550000085
 20
326.9203337136488
 30
0.0
 11
424.3355550000084
 21
328.9203337136488
 31
0.0
  0
LINE
  5
233C
330
2333
100
AcDbEntity
  8
0
 62
     0
100
AcDbLine
 10
421.2130229848749
 20
326.9203337136488
 30
0.0
 11
423.2130229848748
 21
328.9203337136488
 31
0.0
  0
LINE
  5
233D
330
2333
100
AcDbEntity
  8
0
 62
     0
100
AcDbLine
 10
420.2222381169384
 20
327.052080860846
 30
0.0
 11
422.0904909697412
 21
328.9203337136488
 31
0.0
  0
LINE
  5
233E
330
2333
100
AcDbEntity
  8
0
 62
     0
100
AcDbLine
 10
420.2222381169384
 20
328.1746128759797
 30
0.0
 11
420.9679589546075
 21
328.9203337136488
 31
0.0
  0
LINE
  5
233F
330
2333
100
AcDbEntity
  8
0
 62
     0
100
AcDbLine
 10
456.7222381169385
 20
328.7535883917031
 30
0.0
 11
456.8889834388841
 21
328.9203337136488
 31
0.0
  0
LINE
  5
2340
330
2333
100
AcDbEntity
  8
0
 62
     0
100
AcDbLine
 10
456.7222381169385
 20
327.6310563765695
 30
0.0
 11
458.0115154540178
 21
328.9203337136488
 31
0.0
  0
LINE
  5
2341
330
2333
100
AcDbEntity
  8
0
 62
     0
100
AcDbLine
 10
457.1340474691514
 20
326.9203337136488
 30
0.0
 11
459.1340474691514
 21
328.9203337136488
 31
0.0
  0
LINE
  5
2342
330
2333
100
AcDbEntity
  8
0
 62
     0
100
AcDbLine
 10
458.256579484285
 20
326.9203337136488
 30
0.0
 11
460.2565794842851
 21
328.9203337136488
 31
0.0
  0
LINE
  5
2343
330
2333
100
AcDbEntity
  8
0
 62
     0
100
AcDbLine
 10
459.3791114994187
 20
326.9203337136488
 30
0.0
 11
461.3791114994187
 21
328.9203337136488
 31
0.0
  0
LINE
  5
2344
330
2333
100
AcDbEntity
  8
0
 62
     0
100
AcDbLine
 10
460.5016435145524
 20
326.9203337136488
 30
0.0
 11
462.5016435145523
 21
328.9203337136488
 31
0.0
  0
LINE
  5
2345
330
2333
100
AcDbEntity
  8
0
 62
     0
100
AcDbLine
 10
461.6241755296861
 20
326.9203337136488
 30
0.0
 11
463.6241755296859
 21
328.9203337136488
 31
0.0
  0
LINE
  5
2346
330
2333
100
AcDbEntity
  8
0
 62
     0
100
AcDbLine
 10
462.7467075448197
 20
326.9203337136488
 30
0.0
 11
464.7467075448196
 21
328.9203337136488
 31
0.0
  0
LINE
  5
2347
330
2333
100
AcDbEntity
  8
0
 62
     0
100
AcDbLine
 10
463.8692395599533
 20
326.9203337136488
 30
0.0
 11
465.8692395599532
 21
328.9203337136488
 31
0.0
  0
LINE
  5
2348
330
2333
100
AcDbEntity
  8
0
 62
     0
100
AcDbLine
 10
464.9917715750869
 20
326.9203337136488
 30
0.0
 11
466.2222381169385
 21
328.1508002555004
 31
0.0
  0
LINE
  5
2349
330
2333
100
AcDbEntity
  8
0
 62
     0
100
AcDbLine
 10
466.1143035902206
 20
326.9203337136488
 30
0.0
 11
466.2222381169385
 21
327.0282682403668
 31
0.0
  0
LINE
  5
234A
330
2333
100
AcDbEntity
  8
0
 62
     0
100
AcDbLine
 10
429.7222381169385
 20
327.9868720982713
 30
0.0
 11
428.7887765015609
 21
328.9203337136488
 31
0.0
  0
LINE
  5
234B
330
2333
100
AcDbEntity
  8
0
 62
     0
100
AcDbLine
 10
429.6662444864272
 20
326.9203337136488
 30
0.0
 11
427.6662444864272
 21
328.9203337136488
 31
0.0
  0
LINE
  5
234C
330
2333
100
AcDbEntity
  8
0
 62
     0
100
AcDbLine
 10
428.5437124712935
 20
326.9203337136488
 30
0.0
 11
426.5437124712935
 21
328.9203337136488
 31
0.0
  0
LINE
  5
234D
330
2333
100
AcDbEntity
  8
0
 62
     0
100
AcDbLine
 10
427.42118045616
 20
326.9203337136488
 30
0.0
 11
425.4211804561599
 21
328.9203337136488
 31
0.0
  0
LINE
  5
234E
330
2333
100
AcDbEntity
  8
0
 62
     0
100
AcDbLine
 10
426.2986484410262
 20
326.9203337136488
 30
0.0
 11
424.2986484410263
 21
328.9203337136488
 31
0.0
  0
LINE
  5
234F
330
2333
100
AcDbEntity
  8
0
 62
     0
100
AcDbLine
 10
425.1761164258927
 20
326.9203337136488
 30
0.0
 11
423.1761164258927
 21
328.9203337136488
 31
0.0
  0
LINE
  5
2350
330
2333
100
AcDbEntity
  8
0
 62
     0
100
AcDbLine
 10
424.053584410759
 20
326.9203337136488
 30
0.0
 11
422.0535844107589
 21
328.9203337136488
 31
0.0
  0
LINE
  5
2351
330
2333
100
AcDbEntity
  8
0
 62
     0
100
AcDbLine
 10
422.9310523956253
 20
326.9203337136488
 30
0.0
 11
420.9310523956252
 21
328.9203337136488
 31
0.0
  0
LINE
  5
2352
330
2333
100
AcDbEntity
  8
0
 62
     0
100
AcDbLine
 10
421.8085203804917
 20
326.9203337136488
 30
0.0
 11
420.2222381169384
 21
328.5066159772021
 31
0.0
  0
LINE
  5
2353
330
2333
100
AcDbEntity
  8
0
 62
     0
100
AcDbLine
 10
420.6859883653581
 20
326.9203337136488
 30
0.0
 11
420.2222381169384
 21
327.3840839620683
 31
0.0
  0
LINE
  5
2354
330
2333
100
AcDbEntity
  8
0
 62
     0
100
AcDbLine
 10
457.7295448647683
 20
326.9203337136488
 30
0.0
 11
456.7222381169385
 21
327.9276404614786
 31
0.0
  0
LINE
  5
2355
330
2333
100
AcDbEntity
  8
0
 62
     0
100
AcDbLine
 10
458.852076879902
 20
326.9203337136488
 30
0.0
 11
456.852076879902
 21
328.9203337136488
 31
0.0
  0
LINE
  5
2356
330
2333
100
AcDbEntity
  8
0
 62
     0
100
AcDbLine
 10
459.9746088950356
 20
326.9203337136488
 30
0.0
 11
457.9746088950356
 21
328.9203337136488
 31
0.0
  0
LINE
  5
2357
330
2333
100
AcDbEntity
  8
0
 62
     0
100
AcDbLine
 10
461.0971409101693
 20
326.9203337136488
 30
0.0
 11
459.0971409101692
 21
328.9203337136488
 31
0.0
  0
LINE
  5
2358
330
2333
100
AcDbEntity
  8
0
 62
     0
100
AcDbLine
 10
462.2196729253028
 20
326.9203337136488
 30
0.0
 11
460.2196729253028
 21
328.9203337136488
 31
0.0
  0
LINE
  5
2359
330
2333
100
AcDbEntity
  8
0
 62
     0
100
AcDbLine
 10
463.3422049404365
 20
326.9203337136488
 30
0.0
 11
461.3422049404365
 21
328.9203337136488
 31
0.0
  0
LINE
  5
235A
330
2333
100
AcDbEntity
  8
0
 62
     0
100
AcDbLine
 10
464.4647369555702
 20
326.9203337136488
 30
0.0
 11
462.4647369555701
 21
328.9203337136488
 31
0.0
  0
LINE
  5
235B
330
2333
100
AcDbEntity
  8
0
 62
     0
100
AcDbLine
 10
465.5872689707037
 20
326.9203337136488
 30
0.0
 11
463.5872689707038
 21
328.9203337136488
 31
0.0
  0
LINE
  5
235C
330
2333
100
AcDbEntity
  8
0
 62
     0
100
AcDbLine
 10
466.2222381169385
 20
327.4078965825478
 30
0.0
 11
464.7098009858375
 21
328.9203337136488
 31
0.0
  0
LINE
  5
235D
330
2333
100
AcDbEntity
  8
0
 62
     0
100
AcDbLine
 10
466.2222381169385
 20
328.5304285976813
 30
0.0
 11
465.832333000971
 21
328.9203337136488
 31
0.0
  0
ENDBLK
  5
235E
330
2333
100
AcDbEntity
  8
0
100
AcDbBlockEnd
  0
BLOCK
  5
319B
330
3191
100
AcDbEntity
  8
0
100
AcDbBlockBegin
  2
*D5
 70
     1
 10
0.0
 20
0.0
 30
0.0
  3
*D5
  1

  0
LINE
  5
3557
330
3191
100
AcDbEntity
  8
DIM
370
    -2
100
AcDbLine
 10
384.1633602915422
 20
-3050.118439794605
 30
0.0
 11
369.0767425598269
 21
-3050.118439794605
 31
0.0
  0
LINE
  5
3558
330
3191
100
AcDbEntity
  8
DIM
370
    -2
100
AcDbLine
 10
384.1633602915422
 20
-3036.118439794605
 30
0.0
 11
369.0767425598269
 21
-3036.118439794605
 31
0.0
  0
LINE
  5
3559
330
3191
100
AcDbEntity
  8
DIM
370
    -2
100
AcDbLine
 10
371.0767425598269
 20
-3045.118439794605
 30
0.0
 11
371.0767425598269
 21
-3041.118439794605
 31
0.0
  0
SOLID
  5
355A
330
3191
100
AcDbEntity
  8
DIM
100
AcDbTrace
 10
370.2434092264936
 20
-3045.118439794605
 30
0.0
 11
371.9100758931602
 21
-3045.118439794605
 31
0.0
 12
371.0767425598269
 22
-3050.118439794605
 32
0.0
 13
371.0767425598269
 23
-3050.118439794605
 33
0.0
  0
SOLID
  5
355B
330
3191
100
AcDbEntity
  8
DIM
100
AcDbTrace
 10
370.2434092264936
 20
-3041.118439794605
 30
0.0
 11
371.9100758931602
 21
-3041.118439794605
 31
0.0
 12
371.0767425598269
 22
-3036.118439794605
 32
0.0
 13
371.0767425598269
 23
-3036.118439794605
 33
0.0
  0
MTEXT
  5
355C
330
3191
100
AcDbEntity
  8
DIM
100
AcDbMText
 10
369.3267425598274
 20
-3043.118439794605
 30
0.0
 40
3.5
 41
0.0
 71
     5
 72
     1
  1
\A1;%%C14
  7
ESKD
 11
0.0000000000000001
 21
1.0
 31
0.0
 73
     1
 44
1.0
  0
POINT
  5
355D
330
3191
100
AcDbEntity
  8
DEFPOINTS
 62
     0
100
AcDbPoint
 10
384.1633602915422
 20
-3050.118439794605
 30
0.0
  0
POINT
  5
355E
330
3191
100
AcDbEntity
  8
DEFPOINTS
 62
     0
100
AcDbPoint
 10
384.1633602915422
 20
-3036.118439794605
 30
0.0
  0
POINT
  5
355F
330
3191
100
AcDbEntity
  8
DEFPOINTS
 62
     0
100
AcDbPoint
 10
371.0767425598269
 20
-3036.118439794605
 30
0.0
  0
ENDBLK
  5
319C
330
3191
100
AcDbEntity
  8
0
100
AcDbBlockEnd
  0
BLOCK
  5
31A7
330
319D
100
AcDbEntity
  8
0
100
AcDbBlockBegin
  2
*D6
 70
     1
 10
0.0
 20
0.0
 30
0.0
  3
*D6
  1

  0
LINE
  5
3560
330
319D
100
AcDbEntity
  8
DIM
370
    -2
100
AcDbLine
 10
459.6049291152162
 20
-3159.175232767099
 30
0.0
 11
459.6049291152162
 21
-3184.265872229327
 31
0.0
  0
LINE
  5
3561
330
319D
100
AcDbEntity
  8
DIM
370
    -2
100
AcDbLine
 10
486.6049291152162
 20
-3159.175232767099
 30
0.0
 11
486.6049291152162
 21
-3184.265872229327
 31
0.0
  0
LINE
  5
3562
330
319D
100
AcDbEntity
  8
DIM
370
    -2
100
AcDbLine
 10
464.6049291152162
 20
-3182.265872229327
 30
0.0
 11
481.6049291152162
 21
-3182.265872229327
 31
0.0
  0
SOLID
  5
3563
330
319D
100
AcDbEntity
  8
DIM
100
AcDbTrace
 10
464.6049291152162
 20
-3181.432538895994
 30
0.0
 11
464.6049291152162
 21
-3183.099205562661
 31
0.0
 12
459.6049291152162
 22
-3182.265872229327
 32
0.0
 13
459.6049291152162
 23
-3182.265872229327
 33
0.0
  0
SOLID
  5
3564
330
319D
100
AcDbEntity
  8
DIM
100
AcDbTrace
 10
481.6049291152162
 20
-3181.432538895994
 30
0.0
 11
481.6049291152162
 21
-3183.099205562661
 31
0.0
 12
486.6049291152162
 22
-3182.265872229327
 32
0.0
 13
486.6049291152162
 23
-3182.265872229327
 33
0.0
  0
MTEXT
  5
3565
330
319D
100
AcDbEntity
  8
DIM
100
AcDbMText
 10
473.1049291152162
 20
-3180.515872229328
 30
0.0
 40
3.5
 41
0.0
 71
     5
 72
     1
  1
\A1;М27х1.5
  7
ESKD
 73
     1
 44
1.0
  0
POINT
  5
3566
330
319D
100
AcDbEntity
  8
DEFPOINTS
 62
     0
100
AcDbPoint
 10
459.6049291152162
 20
-3159.175232767099
 30
0.0
  0
POINT
  5
3567
330
319D
100
AcDbEntity
  8
DEFPOINTS
 62
     0
100
AcDbPoint
 10
486.6049291152162
 20
-3159.175232767099
 30
0.0
  0
POINT
  5
3568
330
319D
100
AcDbEntity
  8
DEFPOINTS
 62
     0
100
AcDbPoint
 10
486.6049291152162
 20
-3182.265872229327
 30
0.0
  0
ENDBLK
  5
31A8
330
319D
100
AcDbEntity
  8
0
100
AcDbBlockEnd
  0
BLOCK
  5
31B5
330
31A9
100
AcDbEntity
  8
0
100
AcDbBlockBegin
  2
*D7
 70
     1
 10
0.0
 20
0.0
 30
0.0
  3
*D7
  1

  0
LINE
  5
3569
330
31A9
100
AcDbEntity
  8
DIM
370
    -2
100
AcDbLine
 10
468.1049291152162
 20
-3206.83728810901
 30
0.0
 11
468.1049291152162
 21
-3199.29162745162
 31
0.0
  0
LINE
  5
356A
330
31A9
100
AcDbEntity
  8
DIM
370
    -2
100
AcDbLine
 10
478.1049291152162
 20
-3201.527603053639
 30
0.0
 11
478.1049291152162
 21
-3199.29162745162
 31
0.0
  0
LINE
  5
356B
330
31A9
100
AcDbEntity
  8
DIM
370
    -2
100
AcDbLine
 10
463.1049291152162
 20
-3201.291627451619
 30
0.0
 11
458.1049291152162
 21
-3201.291627451619
 31
0.0
  0
LINE
  5
356C
330
31A9
100
AcDbEntity
  8
DIM
370
    -2
100
AcDbLine
 10
483.1049291152162
 20
-3201.291627451619
 30
0.0
 11
488.1049291152162
 21
-3201.291627451619
 31
0.0
  0
LINE
  5
356D
330
31A9
100
AcDbEntity
  8
DIM
370
    -2
100
AcDbLine
 10
468.1049291152162
 20
-3201.291627451619
 30
0.0
 11
478.1049291152162
 21
-3201.291627451619
 31
0.0
  0
SOLID
  5
356E
330
31A9
100
AcDbEntity
  8
DIM
100
AcDbTrace
 10
463.1049291152162
 20
-3200.458294118286
 30
0.0
 11
463.1049291152162
 21
-3202.124960784953
 31
0.0
 12
468.1049291152162
 22
-3201.291627451619
 32
0.0
 13
468.1049291152162
 23
-3201.291627451619
 33
0.0
  0
SOLID
  5
356F
330
31A9
100
AcDbEntity
  8
DIM
100
AcDbTrace
 10
483.1049291152162
 20
-3200.458294118286
 30
0.0
 11
483.1049291152162
 21
-3202.124960784953
 31
0.0
 12
478.1049291152162
 22
-3201.291627451619
 32
0.0
 13
478.1049291152162
 23
-3201.291627451619
 33
0.0
  0
MTEXT
  5
3570
330
31A9
100
AcDbEntity
  8
DIM
100
AcDbMText
 10
473.1049291152162
 20
-3199.541627451619
 30
0.0
 40
3.5
 41
0.0
 71
     5
 72
     1
  1
\A1;%%C10
  7
ESKD
 73
     1
 44
1.0
  0
POINT
  5
3571
330
31A9
100
AcDbEntity
  8
DEFPOINTS
 62
     0
100
AcDbPoint
 10
468.1049291152162
 20
-3206.83728810901
 30
0.0
  0
POINT
  5
3572
330
31A9
100
AcDbEntity
  8
DEFPOINTS
 62
     0
100
AcDbPoint
 10
478.1049291152162
 20
-3201.527603053639
 30
0.0
  0
POINT
  5
3573
330
31A9
100
AcDbEntity
  8
DEFPOINTS
 62
     0
100
AcDbPoint
 10
478.1049291152162
 20
-3201.291627451619
 30
0.0
  0
ENDBLK
  5
31B6
330
31A9
100
AcDbEntity
  8
0
100
AcDbBlockEnd
  0
BLOCK
  5
31C1
330
31B7
100
AcDbEntity
  8
0
100
AcDbBlockBegin
  2
*D8
 70
     1
 10
0.0
 20
0.0
 30
0.0
  3
*D8
  1

  0
LINE
  5
3574
330
31B7
100
AcDbEntity
  8
DIM
370
    -2
100
AcDbLine
 10
486.6049291152162
 20
-3159.175232767099
 30
0.0
 11
511.98922345254
 21
-3159.175232767099
 31
0.0
  0
LINE
  5
3575
330
31B7
100
AcDbEntity
  8
DIM
370
    -2
100
AcDbLine
 10
496.1049291152162
 20
-3139.175232767099
 30
0.0
 11
511.98922345254
 21
-3139.175232767099
 31
0.0
  0
LINE
  5
3576
330
31B7
100
AcDbEntity
  8
DIM
370
    -2
100
AcDbLine
 10
509.98922345254
 20
-3154.175232767099
 30
0.0
 11
509.98922345254
 21
-3144.175232767099
 31
0.0
  0
SOLID
  5
3577
330
31B7
100
AcDbEntity
  8
DIM
100
AcDbTrace
 10
509.1558901192067
 20
-3154.175232767099
 30
0.0
 11
510.8225567858733
 21
-3154.175232767099
 31
0.0
 12
509.98922345254
 22
-3159.175232767099
 32
0.0
 13
509.98922345254
 23
-3159.175232767099
 33
0.0
  0
SOLID
  5
3578
330
31B7
100
AcDbEntity
  8
DIM
100
AcDbTrace
 10
509.1558901192067
 20
-3144.175232767099
 30
0.0
 11
510.8225567858733
 21
-3144.175232767099
 31
0.0
 12
509.98922345254
 22
-3139.175232767099
 32
0.0
 13
509.98922345254
 23
-3139.175232767099
 33
0.0
  0
MTEXT
  5
3579
330
31B7
100
AcDbEntity
  8
DIM
100
AcDbMText
 10
508.2392234525405
 20
-3149.175232767099
 30
0.0
 40
3.5
 41
0.0
 71
     5
 72
     1
  1
\A1;20
  7
ESKD
 11
0.0000000000000001
 21
1.0
 31
0.0
 73
     1
 44
1.0
  0
POINT
  5
357A
330
31B7
100
AcDbEntity
  8
DEFPOINTS
 62
     0
100
AcDbPoint
 10
486.6049291152162
 20
-3159.175232767099
 30
0.0
  0
POINT
  5
357B
330
31B7
100
AcDbEntity
  8
DEFPOINTS
 62
     0
100
AcDbPoint
 10
496.1049291152162
 20
-3139.175232767099
 30
0.0
  0
POINT
  5
357C
330
31B7
100
AcDbEntity
  8
DEFPOINTS
 62
     0
100
AcDbPoint
 10
509.98922345254
 20
-3139.175232767099
 30
0.0
  0
ENDBLK
  5
31C2
330
31B7
100
AcDbEntity
  8
0
100
AcDbBlockEnd
  0
BLOCK
  5
31CD
330
31C3
100
AcDbEntity
  8
0
100
AcDbBlockBegin
  2
*D9
 70
     1
 10
0.0
 20
0.0
 30
0.0
  3
*D9
  1

  0
LINE
  5
357D
330
31C3
100
AcDbEntity
  8
DIM
370
    -2
100
AcDbLine
 10
468.1049291152162
 20
-3239.175232767099
 30
0.0
 11
433.4679690075599
 21
-3239.175232767099
 31
0.0
  0
LINE
  5
357E
330
31C3
100
AcDbEntity
  8
DIM
370
    -2
100
AcDbLine
 10
450.1049291152162
 20
-3139.175232767099
 30
0.0
 11
433.4679690075599
 21
-3139.175232767099
 31
0.0
  0
LINE
  5
357F
330
31C3
100
AcDbEntity
  8
DIM
370
    -2
100
AcDbLine
 10
435.4679690075599
 20
-3234.175232767099
 30
0.0
 11
435.46796900756
 21
-3144.175232767099
 31
0.0
  0
SOLID
  5
3580
330
31C3
100
AcDbEntity
  8
DIM
100
AcDbTrace
 10
434.6346356742266
 20
-3234.175232767099
 30
0.0
 11
436.3013023408932
 21
-3234.175232767099
 31
0.0
 12
435.4679690075599
 22
-3239.175232767099
 32
0.0
 13
435.4679690075599
 23
-3239.175232767099
 33
0.0
  0
SOLID
  5
3581
330
31C3
100
AcDbEntity
  8
DIM
100
AcDbTrace
 10
434.6346356742266
 20
-3144.175232767099
 30
0.0
 11
436.3013023408933
 21
-3144.175232767099
 31
0.0
 12
435.46796900756
 22
-3139.175232767099
 32
0.0
 13
435.46796900756
 23
-3139.175232767099
 33
0.0
  0
MTEXT
  5
3582
330
31C3
100
AcDbEntity
  8
DIM
100
AcDbMText
 10
433.7179690075605
 20
-3189.175232767099
 30
0.0
 40
3.5
 41
0.0
 71
     5
 72
     1
  1
\A1;100
  7
ESKD
 11
0.0000000000000001
 21
1.0
 31
0.0
 73
     1
 44
1.0
  0
POINT
  5
3583
330
31C3
100
AcDbEntity
  8
DEFPOINTS
 62
     0
100
AcDbPoint
 10
468.1049291152162
 20
-3239.175232767099
 30
0.0
  0
POINT
  5
3584
330
31C3
100
AcDbEntity
  8
DEFPOINTS
 62
     0
100
AcDbPoint
 10
450.1049291152162
 20
-3139.175232767099
 30
0.0
  0
POINT
  5
3585
330
31C3
100
AcDbEntity
  8
DEFPOINTS
 62
     0
100
AcDbPoint
 10
435.46796900756
 20
-3139.175232767099
 30
0.0
  0
ENDBLK
  5
31CE
330
31C3
100
AcDbEntity
  8
0
100
AcDbBlockEnd
  0
BLOCK
  5
31D9
330
31CF
100
AcDbEntity
  8
0
100
AcDbBlockBegin
  2
*D10
 70
     1
 10
0.0
 20
0.0
 30
0.0
  3
*D10
  1

  0
LINE
  5
3586
330
31CF
100
AcDbEntity
  8
DIM
370
    -2
100
AcDbLine
 10
450.1049291152162
 20
-3131.735081321239
 30
0.0
 11
450.1049291152162
 21
-3098.708454551064
 31
0.0
  0
LINE
  5
3587
330
31CF
100
AcDbEntity
  8
DIM
370
    -2
100
AcDbLine
 10
496.1049291152162
 20
-3131.735081321239
 30
0.0
 11
496.1049291152162
 21
-3098.708454551064
 31
0.0
  0
LINE
  5
3588
330
31CF
100
AcDbEntity
  8
DIM
370
    -2
100
AcDbLine
 10
455.1049291152162
 20
-3100.708454551063
 30
0.0
 11
491.1049291152162
 21
-3100.708454551063
 31
0.0
  0
SOLID
  5
3589
330
31CF
100
AcDbEntity
  8
DIM
100
AcDbTrace
 10
455.1049291152162
 20
-3099.87512121773
 30
0.0
 11
455.1049291152162
 21
-3101.541787884397
 31
0.0
 12
450.1049291152162
 22
-3100.708454551063
 32
0.0
 13
450.1049291152162
 23
-3100.708454551063
 33
0.0
  0
SOLID
  5
358A
330
31CF
100
AcDbEntity
  8
DIM
100
AcDbTrace
 10
491.1049291152162
 20
-3099.87512121773
 30
0.0
 11
491.1049291152162
 21
-3101.541787884397
 31
0.0
 12
496.1049291152162
 22
-3100.708454551063
 32
0.0
 13
496.1049291152162
 23
-3100.708454551063
 33
0.0
  0
MTEXT
  5
358B
330
31CF
100
AcDbEntity
  8
DIM
100
AcDbMText
 10
473.1049291152162
 20
-3098.958454551064
 30
0.0
 40
3.5
 41
0.0
 71
     5
 72
     1
  1
\A1;%%C46
  7
ESKD
 73
     1
 44
1.0
  0
POINT
  5
358C
330
31CF
100
AcDbEntity
  8
DEFPOINTS
 62
     0
100
AcDbPoint
 10
450.1049291152162
 20
-3131.735081321239
 30
0.0
  0
POINT
  5
358D
330
31CF
100
AcDbEntity
  8
DEFPOINTS
 62
     0
100
AcDbPoint
 10
496.1049291152162
 20
-3131.735081321239
 30
0.0
  0
POINT
  5
358E
330
31CF
100
AcDbEntity
  8
DEFPOINTS
 62
     0
100
AcDbPoint
 10
496.1049291152162
 20
-3100.708454551063
 30
0.0
  0
ENDBLK
  5
31DA
330
31CF
100
AcDbEntity
  8
0
100
AcDbBlockEnd
  0
BLOCK
  5
31E5
330
31DB
100
AcDbEntity
  8
0
100
AcDbBlockBegin
  2
*D11
 70
     1
 10
0.0
 20
0.0
 30
0.0
  3
*D11
  1

  0
LINE
  5
358F
330
31DB
100
AcDbEntity
  8
DIM
370
    -2
100
AcDbLine
 10
505.1562646720785
 20
-3139.175232767099
 30
0.0
 11
539.2218389847093
 21
-3139.175232767099
 31
0.0
  0
LINE
  5
3590
330
31DB
100
AcDbEntity
  8
DIM
370
    -2
100
AcDbLine
 10
473.1049291152162
 20
-3019.175232767099
 30
0.0
 11
539.2218389847093
 21
-3019.175232767099
 31
0.0
  0
LINE
  5
3591
330
31DB
100
AcDbEntity
  8
DIM
370
    -2
100
AcDbLine
 10
537.2218389847094
 20
-3134.175232767099
 30
0.0
 11
537.2218389847094
 21
-3024.175232767099
 31
0.0
  0
SOLID
  5
3592
330
31DB
100
AcDbEntity
  8
DIM
100
AcDbTrace
 10
536.388505651376
 20
-3134.175232767099
 30
0.0
 11
538.0551723180428
 21
-3134.175232767099
 31
0.0
 12
537.2218389847094
 22
-3139.175232767099
 32
0.0
 13
537.2218389847094
 23
-3139.175232767099
 33
0.0
  0
SOLID
  5
3593
330
31DB
100
AcDbEntity
  8
DIM
100
AcDbTrace
 10
536.388505651376
 20
-3024.175232767099
 30
0.0
 11
538.0551723180428
 21
-3024.175232767099
 31
0.0
 12
537.2218389847094
 22
-3019.175232767099
 32
0.0
 13
537.2218389847094
 23
-3019.175232767099
 33
0.0
  0
MTEXT
  5
3594
330
31DB
100
AcDbEntity
  8
DIM
100
AcDbMText
 10
535.4718389847098
 20
-3079.175232767099
 30
0.0
 40
3.5
 41
0.0
 71
     5
 72
     1
  1
\A1;120
  7
ESKD
 11
0.0000000000000001
 21
1.0
 31
0.0
 73
     1
 44
1.0
  0
POINT
  5
3595
330
31DB
100
AcDbEntity
  8
DEFPOINTS
 62
     0
100
AcDbPoint
 10
505.1562646720785
 20
-3139.175232767099
 30
0.0
  0
POINT
  5
3596
330
31DB
100
AcDbEntity
  8
DEFPOINTS
 62
     0
100
AcDbPoint
 10
473.1049291152162
 20
-3019.175232767099
 30
0.0
  0
POINT
  5
3597
330
31DB
100
AcDbEntity
  8
DEFPOINTS
 62
     0
100
AcDbPoint
 10
537.2218389847094
 20
-3019.175232767099
 30
0.0
  0
ENDBLK
  5
31E6
330
31DB
100
AcDbEntity
  8
0
100
AcDbBlockEnd
  0
BLOCK
  5
31F1
330
31E7
100
AcDbEntity
  8
0
100
AcDbBlockBegin
  2
*D12
 70
     1
 10
0.0
 20
0.0
 30
0.0
  3
*D12
  1

  0
LINE
  5
3598
330
31E7
100
AcDbEntity
  8
DIM
370
    -2
100
AcDbLine
 10
473.1049291152162
 20
-3312.889135554827
 30
0.0
 11
548.2757862244558
 21
-3312.889135554827
 31
0.0
  0
LINE
  5
3599
330
31E7
100
AcDbEntity
  8
DIM
370
    -2
100
AcDbLine
 10
473.1049291152162
 20
-3393.889135554827
 30
0.0
 11
548.2757862244556
 21
-3393.889135554827
 31
0.0
  0
LINE
  5
359A
330
31E7
100
AcDbEntity
  8
DIM
370
    -2
100
AcDbLine
 10
546.2757862244558
 20
-3317.889135554827
 30
0.0
 11
546.2757862244557
 21
-3388.889135554827
 31
0.0
  0
SOLID
  5
359B
330
31E7
100
AcDbEntity
  8
DIM
100
AcDbTrace
 10
545.4424528911224
 20
-3317.889135554827
 30
0.0
 11
547.1091195577892
 21
-3317.889135554827
 31
0.0
 12
546.2757862244558
 22
-3312.889135554827
 32
0.0
 13
546.2757862244558
 23
-3312.889135554827
 33
0.0
  0
SOLID
  5
359C
330
31E7
100
AcDbEntity
  8
DIM
100
AcDbTrace
 10
545.4424528911223
 20
-3388.889135554827
 30
0.0
 11
547.1091195577891
 21
-3388.889135554827
 31
0.0
 12
546.2757862244557
 22
-3393.889135554827
 32
0.0
 13
546.2757862244557
 23
-3393.889135554827
 33
0.0
  0
MTEXT
  5
359D
330
31E7
100
AcDbEntity
  8
DIM
100
AcDbMText
 10
544.5257862244562
 20
-3353.389135554827
 30
0.0
 40
3.5
 41
0.0
 71
     5
 72
     1
  1
\A1;81
  7
ESKD
 11
0.0000000000000001
 21
1.0
 31
0.0
 73
     1
 44
1.0
  0
POINT
  5
359E
330
31E7
100
AcDbEntity
  8
DEFPOINTS
 62
     0
100
AcDbPoint
 10
473.1049291152162
 20
-3312.889135554827
 30
0.0
  0
POINT
  5
359F
330
31E7
100
AcDbEntity
  8
DEFPOINTS
 62
     0
100
AcDbPoint
 10
473.1049291152162
 20
-3393.889135554827
 30
0.0
  0
POINT
  5
35A0
330
31E7
100
AcDbEntity
  8
DEFPOINTS
 62
     0
100
AcDbPoint
 10
546.2757862244557
 20
-3393.889135554827
 30
0.0
  0
ENDBLK
  5
31F2
330
31E7
100
AcDbEntity
  8
0
100
AcDbBlockEnd
  0
BLOCK
  5
31FD
330
31F3
100
AcDbEntity
  8
0
100
AcDbBlockBegin
  2
*D13
 70
     1
 10
0.0
 20
0.0
 30
0.0
  3
*D13
  1

  0
LINE
  5
35A1
330
31F3
100
AcDbEntity
  8
DIM
370
    -2
100
AcDbLine
 10
515.1367869173859
 20
-3369.308310427792
 30
0.0
 11
515.1367869173859
 21
-3433.754096193011
 31
0.0
  0
LINE
  5
35A2
330
31F3
100
AcDbEntity
  8
DIM
370
    -2
100
AcDbLine
 10
413.6049291152162
 20
-3369.389135554827
 30
0.0
 11
413.6049291152162
 21
-3433.754096193011
 31
0.0
  0
LINE
  5
35A3
330
31F3
100
AcDbEntity
  8
DIM
370
    -2
100
AcDbLine
 10
510.1367869173859
 20
-3431.754096193011
 30
0.0
 11
418.6049291152162
 21
-3431.754096193011
 31
0.0
  0
SOLID
  5
35A4
330
31F3
100
AcDbEntity
  8
DIM
100
AcDbTrace
 10
510.1367869173859
 20
-3430.920762859678
 30
0.0
 11
510.1367869173859
 21
-3432.587429526345
 31
0.0
 12
515.1367869173859
 22
-3431.754096193011
 32
0.0
 13
515.1367869173859
 23
-3431.754096193011
 33
0.0
  0
SOLID
  5
35A5
330
31F3
100
AcDbEntity
  8
DIM
100
AcDbTrace
 10
418.6049291152162
 20
-3430.920762859678
 30
0.0
 11
418.6049291152162
 21
-3432.587429526345
 31
0.0
 12
413.6049291152162
 22
-3431.754096193011
 32
0.0
 13
413.6049291152162
 23
-3431.754096193011
 33
0.0
  0
MTEXT
  5
35A6
330
31F3
100
AcDbEntity
  8
DIM
100
AcDbMText
 10
464.3708580163011
 20
-3430.004096193011
 30
0.0
 40
3.5
 41
0.0
 71
     5
 72
     1
  1
\A1;100
  7
ESKD
 73
     1
 44
1.0
  0
POINT
  5
35A7
330
31F3
100
AcDbEntity
  8
DEFPOINTS
 62
     0
100
AcDbPoint
 10
515.1367869173859
 20
-3369.308310427792
 30
0.0
  0
POINT
  5
35A8
330
31F3
100
AcDbEntity
  8
DEFPOINTS
 62
     0
100
AcDbPoint
 10
413.6049291152162
 20
-3369.389135554827
 30
0.0
  0
POINT
  5
35A9
330
31F3
100
AcDbEntity
  8
DEFPOINTS
 62
     0
100
AcDbPoint
 10
413.6049291152162
 20
-3431.754096193011
 30
0.0
  0
ENDBLK
  5
31FE
330
31F3
100
AcDbEntity
  8
0
100
AcDbBlockEnd
  0
BLOCK
  5
320B
330
31FF
100
AcDbEntity
  8
0
100
AcDbBlockBegin
  2
*D14
 70
     1
 10
0.0
 20
0.0
 30
0.0
  3
*D14
  1

  0
LINE
  5
35AA
330
31FF
100
AcDbEntity
  8
DIM
370
    -2
100
AcDbLine
 10
-495.0359181585708
 20
-4037.119342253549
 30
0.0
 11
-495.0359181585708
 21
-4053.641757210967
 31
0.0
  0
LINE
  5
35AB
330
31FF
100
AcDbEntity
  8
DIM
370
    -2
100
AcDbLine
 10
-489.0359181585709
 20
-4037.119342253549
 30
0.0
 11
-489.0359181585709
 21
-4053.641757210967
 31
0.0
  0
LINE
  5
35AC
330
31FF
100
AcDbEntity
  8
DIM
370
    -2
100
AcDbLine
 10
-500.0359181585708
 20
-4051.641757210967
 30
0.0
 11
-505.0359181585709
 21
-4051.641757210967
 31
0.0
  0
LINE
  5
35AD
330
31FF
100
AcDbEntity
  8
DIM
370
    -2
100
AcDbLine
 10
-484.0359181585709
 20
-4051.641757210967
 30
0.0
 11
-479.0359181585708
 21
-4051.641757210967
 31
0.0
  0
MTEXT
  5
35AE
330
31FF
100
AcDbEntity
  8
DIM
100
AcDbMText
 10
-492.0359181585708
 20
-4060.391757210967
 30
0.0
 40
3.5
 41
0.0
 71
     5
 72
     1
  1
\A1;%%C6max
  7
ESKD
 73
     1
 44
1.0
  0
LINE
  5
35AF
330
31FF
100
AcDbEntity
  8
DIM
370
    -2
100
AcDbLine
 10
-495.0359181585708
 20
-4051.641757210967
 30
0.0
 11
-489.0359181585709
 21
-4051.641757210967
 31
0.0
  0
SOLID
  5
35B0
330
31FF
100
AcDbEntity
  8
DIM
100
AcDbTrace
 10
-500.0359181585708
 20
-4050.808423877634
 30
0.0
 11
-500.0359181585708
 21
-4052.475090544301
 31
0.0
 12
-495.0359181585708
 22
-4051.641757210967
 32
0.0
 13
-495.0359181585708
 23
-4051.641757210967
 33
0.0
  0
SOLID
  5
35B1
330
31FF
100
AcDbEntity
  8
DIM
100
AcDbTrace
 10
-484.0359181585709
 20
-4050.808423877634
 30
0.0
 11
-484.0359181585709
 21
-4052.475090544301
 31
0.0
 12
-489.0359181585709
 22
-4051.641757210967
 32
0.0
 13
-489.0359181585709
 23
-4051.641757210967
 33
0.0
  0
POINT
  5
35B2
330
31FF
100
AcDbEntity
  8
DEFPOINTS
 62
     0
100
AcDbPoint
 10
-495.0359181585708
 20
-4037.119342253549
 30
0.0
  0
POINT
  5
35B3
330
31FF
100
AcDbEntity
  8
DEFPOINTS
 62
     0
100
AcDbPoint
 10
-489.0359181585709
 20
-4037.119342253549
 30
0.0
  0
POINT
  5
35B4
330
31FF
100
AcDbEntity
  8
DEFPOINTS
 62
     0
100
AcDbPoint
 10
-489.0359181585709
 20
-4051.641757210967
 30
0.0
  0
ENDBLK
  5
320C
330
31FF
100
AcDbEntity
  8
0
100
AcDbBlockEnd
  0
BLOCK
  5
3217
330
320D
100
AcDbEntity
  8
0
100
AcDbBlockBegin
  2
*D15
 70
     1
 10
0.0
 20
0.0
 30
0.0
  3
*D15
  1

  0
LINE
  5
35B5
330
320D
100
AcDbEntity
  8
DIM
370
    -2
100
AcDbLine
 10
-502.0359181585745
 20
-4031.119342253549
 30
0.0
 11
-502.0359181585745
 21
-4064.768249400844
 31
0.0
  0
LINE
  5
35B6
330
320D
100
AcDbEntity
  8
DIM
370
    -2
100
AcDbLine
 10
-482.0359181585745
 20
-4031.119342253549
 30
0.0
 11
-482.0359181585745
 21
-4064.768249400844
 31
0.0
  0
LINE
  5
35B7
330
320D
100
AcDbEntity
  8
DIM
370
    -2
100
AcDbLine
 10
-497.0359181585745
 20
-4062.768249400844
 30
0.0
 11
-487.0359181585745
 21
-4062.768249400844
 31
0.0
  0
MTEXT
  5
35B8
330
320D
100
AcDbEntity
  8
DIM
100
AcDbMText
 10
-492.0359181585745
 20
-4073.268249400844
 30
0.0
 40
3.5
 41
0.0
 71
     5
 72
     1
  1
\A1;М20х1.5-8g
  7
ESKD
 73
     1
 44
1.0
  0
SOLID
  5
35B9
330
320D
100
AcDbEntity
  8
DIM
100
AcDbTrace
 10
-497.0359181585745
 20
-4061.93491606751
 30
0.0
 11
-497.0359181585745
 21
-4063.601582734178
 31
0.0
 12
-502.0359181585745
 22
-4062.768249400844
 32
0.0
 13
-502.0359181585745
 23
-4062.768249400844
 33
0.0
  0
SOLID
  5
35BA
330
320D
100
AcDbEntity
  8
DIM
100
AcDbTrace
 10
-487.0359181585745
 20
-4061.93491606751
 30
0.0
 11
-487.0359181585745
 21
-4063.601582734178
 31
0.0
 12
-482.0359181585745
 22
-4062.768249400844
 32
0.0
 13
-482.0359181585745
 23
-4062.768249400844
 33
0.0
  0
POINT
  5
35BB
330
320D
100
AcDbEntity
  8
DEFPOINTS
 62
     0
100
AcDbPoint
 10
-502.0359181585745
 20
-4031.119342253549
 30
0.0
  0
POINT
  5
35BC
330
320D
100
AcDbEntity
  8
DEFPOINTS
 62
     0
100
AcDbPoint
 10
-482.0359181585745
 20
-4031.119342253549
 30
0.0
  0
POINT
  5
35BD
330
320D
100
AcDbEntity
  8
DEFPOINTS
 62
     0
100
AcDbPoint
 10
-482.0359181585745
 20
-4062.768249400844
 30
0.0
  0
ENDBLK
  5
3218
330
320D
100
AcDbEntity
  8
0
100
AcDbBlockEnd
  0
BLOCK
  5
3223
330
3219
100
AcDbEntity
  8
0
100
AcDbBlockBegin
  2
*D16
 70
     1
 10
0.0
 20
0.0
 30
0.0
  3
*D16
  1

  0
LINE
  5
35BE
330
3219
100
AcDbEntity
  8
DIM
370
    -2
100
AcDbLine
 10
-577.0359181585781
 20
-3912.119342253549
 30
0.0
 11
-577.0359181585781
 21
-3805.530018610446
 31
0.0
  0
LINE
  5
35BF
330
3219
100
AcDbEntity
  8
DIM
370
    -2
100
AcDbLine
 10
-407.0359181585781
 20
-3912.119342253549
 30
0.0
 11
-407.0359181585781
 21
-3805.530018610446
 31
0.0
  0
LINE
  5
35C0
330
3219
100
AcDbEntity
  8
DIM
370
    -2
100
AcDbLine
 10
-572.0359181585782
 20
-3807.530018610445
 30
0.0
 11
-412.0359181585781
 21
-3807.530018610445
 31
0.0
  0
SOLID
  5
35C1
330
3219
100
AcDbEntity
  8
DIM
100
AcDbTrace
 10
-572.0359181585782
 20
-3806.696685277112
 30
0.0
 11
-572.0359181585782
 21
-3808.363351943779
 31
0.0
 12
-577.0359181585781
 22
-3807.530018610445
 32
0.0
 13
-577.0359181585781
 23
-3807.530018610445
 33
0.0
  0
SOLID
  5
35C2
330
3219
100
AcDbEntity
  8
DIM
100
AcDbTrace
 10
-412.0359181585781
 20
-3806.696685277112
 30
0.0
 11
-412.0359181585781
 21
-3808.363351943779
 31
0.0
 12
-407.0359181585781
 22
-3807.530018610445
 32
0.0
 13
-407.0359181585781
 23
-3807.530018610445
 33
0.0
  0
MTEXT
  5
35C3
330
3219
100
AcDbEntity
  8
DIM
100
AcDbMText
 10
-492.0359181585781
 20
-3804.780018610446
 30
0.0
 40
3.5
 41
0.0
 71
     5
 72
     1
  1
\A1;%%C170 max
  7
ESKD
 73
     1
 44
1.0
  0
POINT
  5
35C4
330
3219
100
AcDbEntity
  8
DEFPOINTS
 62
     0
100
AcDbPoint
 10
-577.0359181585781
 20
-3912.119342253549
 30
0.0
  0
POINT
  5
35C5
330
3219
100
AcDbEntity
  8
DEFPOINTS
 62
     0
100
AcDbPoint
 10
-407.0359181585781
 20
-3912.119342253549
 30
0.0
  0
POINT
  5
35C6
330
3219
100
AcDbEntity
  8
DEFPOINTS
 62
     0
100
AcDbPoint
 10
-407.0359181585781
 20
-3807.530018610445
 30
0.0
  0
ENDBLK
  5
3224
330
3219
100
AcDbEntity
  8
0
100
AcDbBlockEnd
  0
BLOCK
  5
322F
330
3225
100
AcDbEntity
  8
0
100
AcDbBlockBegin
  2
*D17
 70
     1
 10
0.0
 20
0.0
 30
0.0
  3
*D17
  1

  0
LINE
  5
35C7
330
3225
100
AcDbEntity
  8
DIM
370
    -2
100
AcDbLine
 10
-556.0359181585782
 20
-3848.119342253549
 30
0.0
 11
-556.0359181585782
 21
-3816.044396026886
 31
0.0
  0
LINE
  5
35C8
330
3225
100
AcDbEntity
  8
DIM
370
    -2
100
AcDbLine
 10
-424.5359181585781
 20
-3848.119342253547
 30
0.0
 11
-424.5359181585781
 21
-3816.044396026886
 31
0.0
  0
LINE
  5
35C9
330
3225
100
AcDbEntity
  8
DIM
370
    -2
100
AcDbLine
 10
-551.0359181585782
 20
-3818.044396026886
 30
0.0
 11
-429.5359181585781
 21
-3818.044396026886
 31
0.0
  0
SOLID
  5
35CA
330
3225
100
AcDbEntity
  8
DIM
100
AcDbTrace
 10
-551.0359181585782
 20
-3817.211062693553
 30
0.0
 11
-551.0359181585782
 21
-3818.877729360219
 31
0.0
 12
-556.0359181585782
 22
-3818.044396026886
 32
0.0
 13
-556.0359181585782
 23
-3818.044396026886
 33
0.0
  0
SOLID
  5
35CB
330
3225
100
AcDbEntity
  8
DIM
100
AcDbTrace
 10
-429.5359181585781
 20
-3817.211062693553
 30
0.0
 11
-429.5359181585781
 21
-3818.877729360219
 31
0.0
 12
-424.5359181585781
 22
-3818.044396026886
 32
0.0
 13
-424.5359181585781
 23
-3818.044396026886
 33
0.0
  0
MTEXT
  5
35CC
330
3225
100
AcDbEntity
  8
DIM
100
AcDbMText
 10
-490.2859181585781
 20
-3815.294396026886
 30
0.0
 40
3.5
 41
0.0
 71
     5
 72
     1
  1
\A1;128%%P0.4
  7
ESKD
 73
     1
 44
1.0
  0
POINT
  5
35CD
330
3225
100
AcDbEntity
  8
DEFPOINTS
 62
     0
100
AcDbPoint
 10
-556.0359181585782
 20
-3848.119342253549
 30
0.0
  0
POINT
  5
35CE
330
3225
100
AcDbEntity
  8
DEFPOINTS
 62
     0
100
AcDbPoint
 10
-424.5359181585781
 20
-3848.119342253547
 30
0.0
  0
POINT
  5
35CF
330
3225
100
AcDbEntity
  8
DEFPOINTS
 62
     0
100
AcDbPoint
 10
-424.5359181585781
 20
-3818.044396026886
 30
0.0
  0
ENDBLK
  5
3230
330
3225
100
AcDbEntity
  8
0
100
AcDbBlockEnd
  0
BLOCK
  5
323B
330
3231
100
AcDbEntity
  8
0
100
AcDbBlockBegin
  2
*D18
 70
     1
 10
0.0
 20
0.0
 30
0.0
  3
*D18
  1

  0
LINE
  5
35D0
330
3231
100
AcDbEntity
  8
DIM
370
    -2
100
AcDbLine
 10
-556.0359181585782
 20
-3976.119342253549
 30
0.0
 11
-598.6806999259251
 21
-3976.119342253549
 31
0.0
  0
LINE
  5
35D1
330
3231
100
AcDbEntity
  8
DIM
370
    -2
100
AcDbLine
 10
-552.5359181585781
 20
-3848.119342253547
 30
0.0
 11
-598.6806999259251
 21
-3848.119342253547
 31
0.0
  0
LINE
  5
35D2
330
3231
100
AcDbEntity
  8
DIM
370
    -2
100
AcDbLine
 10
-596.6806999259252
 20
-3971.119342253549
 30
0.0
 11
-596.6806999259252
 21
-3853.119342253548
 31
0.0
  0
SOLID
  5
35D3
330
3231
100
AcDbEntity
  8
DIM
100
AcDbTrace
 10
-597.5140332592586
 20
-3971.119342253549
 30
0.0
 11
-595.8473665925918
 21
-3971.119342253549
 31
0.0
 12
-596.6806999259252
 22
-3976.119342253549
 32
0.0
 13
-596.6806999259252
 23
-3976.119342253549
 33
0.0
  0
SOLID
  5
35D4
330
3231
100
AcDbEntity
  8
DIM
100
AcDbTrace
 10
-597.5140332592586
 20
-3853.119342253548
 30
0.0
 11
-595.8473665925918
 21
-3853.119342253548
 31
0.0
 12
-596.6806999259252
 22
-3848.119342253547
 32
0.0
 13
-596.6806999259252
 23
-3848.119342253547
 33
0.0
  0
MTEXT
  5
35D5
330
3231
100
AcDbEntity
  8
DIM
100
AcDbMText
 10
-599.4306999259245
 20
-3912.119342253549
 30
0.0
 40
3.5
 41
0.0
 71
     5
 72
     1
  1
\A1;128%%P0.4
  7
ESKD
 11
0.0000000000000001
 21
1.0
 31
0.0
 73
     1
 44
1.0
  0
POINT
  5
35D6
330
3231
100
AcDbEntity
  8
DEFPOINTS
 62
     0
100
AcDbPoint
 10
-556.0359181585782
 20
-3976.119342253549
 30
0.0
  0
POINT
  5
35D7
330
3231
100
AcDbEntity
  8
DEFPOINTS
 62
     0
100
AcDbPoint
 10
-552.5359181585781
 20
-3848.119342253547
 30
0.0
  0
POINT
  5
35D8
330
3231
100
AcDbEntity
  8
DEFPOINTS
 62
     0
100
AcDbPoint
 10
-596.6806999259252
 20
-3848.119342253547
 30
0.0
  0
ENDBLK
  5
323C
330
3231
100
AcDbEntity
  8
0
100
AcDbBlockEnd
  0
BLOCK
  5
3247
330
323D
100
AcDbEntity
  8
0
100
AcDbBlockBegin
  2
*D19
 70
     1
 10
0.0
 20
0.0
 30
0.0
  3
*D19
  1

  0
LINE
  5
35D9
330
323D
100
AcDbEntity
  8
DIM
370
    -2
100
AcDbLine
 10
-833.3745417761283
 20
-3992.119342253549
 30
0.0
 11
-884.8785461265844
 21
-3992.119342253549
 31
0.0
  0
LINE
  5
35DA
330
323D
100
AcDbEntity
  8
DIM
370
    -2
100
AcDbLine
 10
-833.3745417761246
 20
-3832.119342253547
 30
0.0
 11
-884.8785461265842
 21
-3832.119342253547
 31
0.0
  0
LINE
  5
35DB
330
323D
100
AcDbEntity
  8
DIM
370
    -2
100
AcDbLine
 10
-882.8785461265844
 20
-3987.119342253549
 30
0.0
 11
-882.8785461265843
 21
-3837.119342253547
 31
0.0
  0
SOLID
  5
35DC
330
323D
100
AcDbEntity
  8
DIM
100
AcDbTrace
 10
-883.7118794599177
 20
-3987.119342253549
 30
0.0
 11
-882.045212793251
 21
-3987.119342253549
 31
0.0
 12
-882.8785461265844
 22
-3992.119342253549
 32
0.0
 13
-882.8785461265844
 23
-3992.119342253549
 33
0.0
  0
SOLID
  5
35DD
330
323D
100
AcDbEntity
  8
DIM
100
AcDbTrace
 10
-883.7118794599176
 20
-3837.119342253547
 30
0.0
 11
-882.045212793251
 21
-3837.119342253547
 31
0.0
 12
-882.8785461265843
 22
-3832.119342253547
 32
0.0
 13
-882.8785461265843
 23
-3832.119342253547
 33
0.0
  0
MTEXT
  5
35DE
330
323D
100
AcDbEntity
  8
DIM
100
AcDbMText
 10
-885.6285461265837
 20
-3912.119342253549
 30
0.0
 40
3.5
 41
0.0
 71
     5
 72
     1
  1
\A1;%%C160%%P1.5
  7
ESKD
 11
0.0000000000000001
 21
1.0
 31
0.0
 73
     1
 44
1.0
  0
POINT
  5
35DF
330
323D
100
AcDbEntity
  8
DEFPOINTS
 62
     0
100
AcDbPoint
 10
-833.3745417761283
 20
-3992.119342253549
 30
0.0
  0
POINT
  5
35E0
330
323D
100
AcDbEntity
  8
DEFPOINTS
 62
     0
100
AcDbPoint
 10
-833.3745417761246
 20
-3832.119342253547
 30
0.0
  0
POINT
  5
35E1
330
323D
100
AcDbEntity
  8
DEFPOINTS
 62
     0
100
AcDbPoint
 10
-882.8785461265843
 20
-3832.119342253547
 30
0.0
  0
ENDBLK
  5
3248
330
323D
100
AcDbEntity
  8
0
100
AcDbBlockEnd
  0
BLOCK
  5
3253
330
3249
100
AcDbEntity
  8
0
100
AcDbBlockBegin
  2
*D20
 70
     1
 10
0.0
 20
0.0
 30
0.0
  3
*D20
  1

  0
LINE
  5
35E2
330
3249
100
AcDbEntity
  8
DIM
370
    -2
100
AcDbLine
 10
-833.3745417761246
 20
-3832.119342253547
 30
0.0
 11
-833.3745417761246
 21
-3798.35719723523
 31
0.0
  0
LINE
  5
35E3
330
3249
100
AcDbEntity
  8
DIM
370
    -2
100
AcDbLine
 10
-735.3745417761246
 20
-3827.119342253549
 30
0.0
 11
-735.3745417761246
 21
-3798.35719723523
 31
0.0
  0
LINE
  5
35E4
330
3249
100
AcDbEntity
  8
DIM
370
    -2
100
AcDbLine
 10
-828.3745417761247
 20
-3800.357197235229
 30
0.0
 11
-740.3745417761247
 21
-3800.357197235229
 31
0.0
  0
SOLID
  5
35E5
330
3249
100
AcDbEntity
  8
DIM
100
AcDbTrace
 10
-828.3745417761247
 20
-3799.523863901896
 30
0.0
 11
-828.3745417761247
 21
-3801.190530568563
 31
0.0
 12
-833.3745417761246
 22
-3800.357197235229
 32
0.0
 13
-833.3745417761246
 23
-3800.357197235229
 33
0.0
  0
SOLID
  5
35E6
330
3249
100
AcDbEntity
  8
DIM
100
AcDbTrace
 10
-740.3745417761247
 20
-3799.523863901896
 30
0.0
 11
-740.3745417761247
 21
-3801.190530568563
 31
0.0
 12
-735.3745417761246
 22
-3800.357197235229
 32
0.0
 13
-735.3745417761246
 23
-3800.357197235229
 33
0.0
  0
MTEXT
  5
35E7
330
3249
100
AcDbEntity
  8
DIM
100
AcDbMText
 10
-784.3745417761247
 20
-3797.60719723523
 30
0.0
 40
3.5
 41
0.0
 71
     5
 72
     1
  1
\A1;98max
  7
ESKD
 73
     1
 44
1.0
  0
POINT
  5
35E8
330
3249
100
AcDbEntity
  8
DEFPOINTS
 62
     0
100
AcDbPoint
 10
-833.3745417761246
 20
-3832.119342253547
 30
0.0
  0
POINT
  5
35E9
330
3249
100
AcDbEntity
  8
DEFPOINTS
 62
     0
100
AcDbPoint
 10
-735.3745417761246
 20
-3827.119342253549
 30
0.0
  0
POINT
  5
35EA
330
3249
100
AcDbEntity
  8
DEFPOINTS
 62
     0
100
AcDbPoint
 10
-735.3745417761246
 20
-3800.357197235229
 30
0.0
  0
ENDBLK
  5
3254
330
3249
100
AcDbEntity
  8
0
100
AcDbBlockEnd
  0
BLOCK
  5
3261
330
3255
100
AcDbEntity
  8
0
100
AcDbBlockBegin
  2
*D21
 70
     1
 10
0.0
 20
0.0
 30
0.0
  3
*D21
  1

  0
LINE
  5
35EB
330
3255
100
AcDbEntity
  8
DIM
370
    -2
100
AcDbLine
 10
-743.3745417761283
 20
-3827.119342253549
 30
0.0
 11
-743.3745417761283
 21
-3809.530345047289
 31
0.0
  0
LINE
  5
35EC
330
3255
100
AcDbEntity
  8
DIM
370
    -2
100
AcDbLine
 10
-735.3745417761246
 20
-3827.119342253549
 30
0.0
 11
-735.3745417761246
 21
-3809.530345047289
 31
0.0
  0
LINE
  5
35ED
330
3255
100
AcDbEntity
  8
DIM
370
    -2
100
AcDbLine
 10
-748.3745417761284
 20
-3811.53034504729
 30
0.0
 11
-753.3745417761283
 21
-3811.53034504729
 31
0.0
  0
LINE
  5
35EE
330
3255
100
AcDbEntity
  8
DIM
370
    -2
100
AcDbLine
 10
-730.3745417761247
 20
-3811.53034504729
 30
0.0
 11
-725.3745417761247
 21
-3811.53034504729
 31
0.0
  0
MTEXT
  5
35EF
330
3255
100
AcDbEntity
  8
DIM
100
AcDbMText
 10
-739.3745417761265
 20
-3806.280345047289
 30
0.0
 40
3.5
 41
0.0
 71
     5
 72
     1
  1
\A1;8max
  7
ESKD
 73
     1
 44
1.0
  0
LINE
  5
35F0
330
3255
100
AcDbEntity
  8
DIM
370
    -2
100
AcDbLine
 10
-743.3745417761283
 20
-3811.53034504729
 30
0.0
 11
-735.3745417761246
 21
-3811.53034504729
 31
0.0
  0
SOLID
  5
35F1
330
3255
100
AcDbEntity
  8
DIM
100
AcDbTrace
 10
-748.3745417761284
 20
-3810.697011713956
 30
0.0
 11
-748.3745417761284
 21
-3812.363678380623
 31
0.0
 12
-743.3745417761283
 22
-3811.53034504729
 32
0.0
 13
-743.3745417761283
 23
-3811.53034504729
 33
0.0
  0
SOLID
  5
35F2
330
3255
100
AcDbEntity
  8
DIM
100
AcDbTrace
 10
-730.3745417761247
 20
-3810.697011713956
 30
0.0
 11
-730.3745417761247
 21
-3812.363678380623
 31
0.0
 12
-735.3745417761246
 22
-3811.53034504729
 32
0.0
 13
-735.3745417761246
 23
-3811.53034504729
 33
0.0
  0
POINT
  5
35F3
330
3255
100
AcDbEntity
  8
DEFPOINTS
 62
     0
100
AcDbPoint
 10
-743.3745417761283
 20
-3827.119342253549
 30
0.0
  0
POINT
  5
35F4
330
3255
100
AcDbEntity
  8
DEFPOINTS
 62
     0
100
AcDbPoint
 10
-735.3745417761246
 20
-3827.119342253549
 30
0.0
  0
POINT
  5
35F5
330
3255
100
AcDbEntity
  8
DEFPOINTS
 62
     0
100
AcDbPoint
 10
-735.3745417761246
 20
-3811.53034504729
 30
0.0
  0
ENDBLK
  5
3262
330
3255
100
AcDbEntity
  8
0
100
AcDbBlockEnd
  0
BLOCK
  5
326D
330
3263
100
AcDbEntity
  8
0
100
AcDbBlockBegin
  2
*D22
 70
     1
 10
0.0
 20
0.0
 30
0.0
  3
*D22
  1

  0
LINE
  5
35F6
330
3263
100
AcDbEntity
  8
DIM
370
    -2
100
AcDbLine
 10
-843.0413773283262
 20
-3906.903489461516
 30
0.0
 11
-843.0413773283262
 21
-3781.245417783832
 31
0.0
  0
LINE
  5
35F7
330
3263
100
AcDbEntity
  8
DIM
370
    -2
100
AcDbLine
 10
-698.0413773283299
 20
-3885.393009829279
 30
0.0
 11
-698.0413773283299
 21
-3781.245417783832
 31
0.0
  0
LINE
  5
35F8
330
3263
100
AcDbEntity
  8
DIM
370
    -2
100
AcDbLine
 10
-838.0413773283262
 20
-3783.245417783831
 30
0.0
 11
-703.0413773283298
 21
-3783.245417783831
 31
0.0
  0
SOLID
  5
35F9
330
3263
100
AcDbEntity
  8
DIM
100
AcDbTrace
 10
-838.0413773283262
 20
-3782.412084450498
 30
0.0
 11
-838.0413773283262
 21
-3784.078751117166
 31
0.0
 12
-843.0413773283262
 22
-3783.245417783831
 32
0.0
 13
-843.0413773283262
 23
-3783.245417783831
 33
0.0
  0
SOLID
  5
35FA
330
3263
100
AcDbEntity
  8
DIM
100
AcDbTrace
 10
-703.0413773283298
 20
-3782.412084450498
 30
0.0
 11
-703.0413773283298
 21
-3784.078751117166
 31
0.0
 12
-698.0413773283299
 22
-3783.245417783831
 32
0.0
 13
-698.0413773283299
 23
-3783.245417783831
 33
0.0
  0
MTEXT
  5
35FB
330
3263
100
AcDbEntity
  8
DIM
100
AcDbMText
 10
-770.5413773283281
 20
-3780.495417783832
 30
0.0
 40
3.5
 41
0.0
 71
     5
 72
     1
  1
\A1;145max
  7
ESKD
 73
     1
 44
1.0
  0
POINT
  5
35FC
330
3263
100
AcDbEntity
  8
DEFPOINTS
 62
     0
100
AcDbPoint
 10
-843.0413773283262
 20
-3906.903489461516
 30
0.0
  0
POINT
  5
35FD
330
3263
100
AcDbEntity
  8
DEFPOINTS
 62
     0
100
AcDbPoint
 10
-698.0413773283299
 20
-3885.393009829279
 30
0.0
  0
POINT
  5
35FE
330
3263
100
AcDbEntity
  8
DEFPOINTS
 62
     0
100
AcDbPoint
 10
-698.0413773283299
 20
-3783.245417783831
 30
0.0
  0
ENDBLK
  5
326E
330
3263
100
AcDbEntity
  8
0
100
AcDbBlockEnd
  0
BLOCK
  5
3279
330
326F
100
AcDbEntity
  8
0
100
AcDbBlockBegin
  2
*D23
 70
     1
 10
0.0
 20
0.0
 30
0.0
  3
*D23
  1

  0
LINE
  5
35FF
330
326F
100
AcDbEntity
  8
DIM
370
    -2
100
AcDbLine
 10
-760.3745417761283
 20
-4037.119342253549
 30
0.0
 11
-760.3745417761283
 21
-4067.20692304574
 31
0.0
  0
LINE
  5
3600
330
326F
100
AcDbEntity
  8
DIM
370
    -2
100
AcDbLine
 10
-735.3745417761283
 20
-3997.119342253549
 30
0.0
 11
-735.3745417761283
 21
-4067.20692304574
 31
0.0
  0
LINE
  5
3601
330
326F
100
AcDbEntity
  8
DIM
370
    -2
100
AcDbLine
 10
-755.3745417761283
 20
-4065.20692304574
 30
0.0
 11
-740.3745417761284
 21
-4065.20692304574
 31
0.0
  0
SOLID
  5
3602
330
326F
100
AcDbEntity
  8
DIM
100
AcDbTrace
 10
-755.3745417761283
 20
-4064.373589712406
 30
0.0
 11
-755.3745417761283
 21
-4066.040256379073
 31
0.0
 12
-760.3745417761283
 22
-4065.20692304574
 32
0.0
 13
-760.3745417761283
 23
-4065.20692304574
 33
0.0
  0
SOLID
  5
3603
330
326F
100
AcDbEntity
  8
DIM
100
AcDbTrace
 10
-740.3745417761284
 20
-4064.373589712406
 30
0.0
 11
-740.3745417761284
 21
-4066.040256379073
 31
0.0
 12
-735.3745417761283
 22
-4065.20692304574
 32
0.0
 13
-735.3745417761283
 23
-4065.20692304574
 33
0.0
  0
MTEXT
  5
3604
330
326F
100
AcDbEntity
  8
DIM
100
AcDbMText
 10
-747.8745417761283
 20
-4062.45692304574
 30
0.0
 40
3.5
 41
0.0
 71
     5
 72
     1
  1
\A1;25max
  7
ESKD
 73
     1
 44
1.0
  0
POINT
  5
3605
330
326F
100
AcDbEntity
  8
DEFPOINTS
 62
     0
100
AcDbPoint
 10
-760.3745417761283
 20
-4037.119342253549
 30
0.0
  0
POINT
  5
3606
330
326F
100
AcDbEntity
  8
DEFPOINTS
 62
     0
100
AcDbPoint
 10
-735.3745417761283
 20
-3997.119342253549
 30
0.0
  0
POINT
  5
3607
330
326F
100
AcDbEntity
  8
DEFPOINTS
 62
     0
100
AcDbPoint
 10
-735.3745417761283
 20
-4065.20692304574
 30
0.0
  0
ENDBLK
  5
327A
330
326F
100
AcDbEntity
  8
0
100
AcDbBlockEnd
  0
BLOCK
  5
3285
330
327B
100
AcDbEntity
  8
0
100
AcDbBlockBegin
  2
*D24
 70
     1
 10
0.0
 20
0.0
 30
0.0
  3
*D24
  1

  0
LINE
  5
3608
330
327B
100
AcDbEntity
  8
DIM
370
    -2
100
AcDbLine
 10
-735.3745417761283
 20
-3912.119342253549
 30
0.0
 11
-672.7268129724225
 21
-3912.119342253549
 31
0.0
  0
LINE
  5
3609
330
327B
100
AcDbEntity
  8
DIM
370
    -2
100
AcDbLine
 10
-698.0413773283262
 20
-3896.119342253549
 30
0.0
 11
-672.7268129724225
 21
-3896.119342253549
 31
0.0
  0
LINE
  5
360A
330
327B
100
AcDbEntity
  8
DIM
370
    -2
100
AcDbLine
 10
-674.7268129724225
 20
-3907.119342253549
 30
0.0
 11
-674.7268129724225
 21
-3901.119342253549
 31
0.0
  0
MTEXT
  5
360B
330
327B
100
AcDbEntity
  8
DIM
100
AcDbMText
 10
-665.9768129724218
 20
-3904.119342253549
 30
0.0
 40
3.5
 41
0.0
 71
     5
 72
     1
  1
\A1;16%%P0.35
  7
ESKD
 11
0.0000000000000001
 21
1.0
 31
0.0
 73
     1
 44
1.0
  0
SOLID
  5
360C
330
327B
100
AcDbEntity
  8
DIM
100
AcDbTrace
 10
-675.5601463057558
 20
-3907.119342253549
 30
0.0
 11
-673.8934796390891
 21
-3907.119342253549
 31
0.0
 12
-674.7268129724225
 22
-3912.119342253549
 32
0.0
 13
-674.7268129724225
 23
-3912.119342253549
 33
0.0
  0
SOLID
  5
360D
330
327B
100
AcDbEntity
  8
DIM
100
AcDbTrace
 10
-675.5601463057558
 20
-3901.119342253549
 30
0.0
 11
-673.8934796390891
 21
-3901.119342253549
 31
0.0
 12
-674.7268129724225
 22
-3896.119342253549
 32
0.0
 13
-674.7268129724225
 23
-3896.119342253549
 33
0.0
  0
POINT
  5
360E
330
327B
100
AcDbEntity
  8
DEFPOINTS
 62
     0
100
AcDbPoint
 10
-735.3745417761283
 20
-3912.119342253549
 30
0.0
  0
POINT
  5
360F
330
327B
100
AcDbEntity
  8
DEFPOINTS
 62
     0
100
AcDbPoint
 10
-698.0413773283262
 20
-3896.119342253549
 30
0.0
  0
POINT
  5
3610
330
327B
100
AcDbEntity
  8
DEFPOINTS
 62
     0
100
AcDbPoint
 10
-674.7268129724225
 20
-3896.119342253549
 30
0.0
  0
ENDBLK
  5
3286
330
327B
100
AcDbEntity
  8
0
100
AcDbBlockEnd
  0
BLOCK
  5
3293
330
3287
100
AcDbEntity
  8
0
100
AcDbBlockBegin
  2
*D25
 70
     1
 10
0.0
 20
0.0
 30
0.0
  3
*D25
  1

  0
LINE
  5
3611
330
3287
100
AcDbEntity
  8
DIM
370
    -2
100
AcDbLine
 10
-769.3745417761284
 20
-4032.119342253548
 30
0.0
 11
-783.7205843718193
 21
-4032.119342253548
 31
0.0
  0
LINE
  5
3612
330
3287
100
AcDbEntity
  8
DIM
370
    -2
100
AcDbLine
 10
-763.3745417761247
 20
-4037.119342253549
 30
0.0
 11
-783.7205843718193
 21
-4037.119342253549
 31
0.0
  0
LINE
  5
3613
330
3287
100
AcDbEntity
  8
DIM
370
    -2
100
AcDbLine
 10
-781.7205843718193
 20
-4027.119342253548
 30
0.0
 11
-781.7205843718193
 21
-4022.119342253549
 31
0.0
  0
LINE
  5
3614
330
3287
100
AcDbEntity
  8
DIM
370
    -2
100
AcDbLine
 10
-781.7205843718193
 20
-4042.119342253548
 30
0.0
 11
-781.7205843718193
 21
-4047.119342253549
 31
0.0
  0
MTEXT
  5
3615
330
3287
100
AcDbEntity
  8
DIM
100
AcDbMText
 10
-786.9705843718186
 20
-4034.619342253549
 30
0.0
 40
3.5
 41
0.0
 71
     5
 72
     1
  1
\A1;6max
  7
ESKD
 11
0.0000000000000001
 21
1.0
 31
0.0
 73
     1
 44
1.0
  0
LINE
  5
3616
330
3287
100
AcDbEntity
  8
DIM
370
    -2
100
AcDbLine
 10
-781.7205843718193
 20
-4032.119342253548
 30
0.0
 11
-781.7205843718193
 21
-4037.119342253549
 31
0.0
  0
SOLID
  5
3617
330
3287
100
AcDbEntity
  8
DIM
100
AcDbTrace
 10
-782.5539177051527
 20
-4027.119342253548
 30
0.0
 11
-780.8872510384859
 21
-4027.119342253548
 31
0.0
 12
-781.7205843718193
 22
-4032.119342253548
 32
0.0
 13
-781.7205843718193
 23
-4032.119342253548
 33
0.0
  0
SOLID
  5
3618
330
3287
100
AcDbEntity
  8
DIM
100
AcDbTrace
 10
-782.5539177051527
 20
-4042.119342253548
 30
0.0
 11
-780.8872510384859
 21
-4042.119342253548
 31
0.0
 12
-781.7205843718193
 22
-4037.119342253549
 32
0.0
 13
-781.7205843718193
 23
-4037.119342253549
 33
0.0
  0
POINT
  5
3619
330
3287
100
AcDbEntity
  8
DEFPOINTS
 62
     0
100
AcDbPoint
 10
-769.3745417761284
 20
-4032.119342253548
 30
0.0
  0
POINT
  5
361A
330
3287
100
AcDbEntity
  8
DEFPOINTS
 62
     0
100
AcDbPoint
 10
-763.3745417761247
 20
-4037.119342253549
 30
0.0
  0
POINT
  5
361B
330
3287
100
AcDbEntity
  8
DEFPOINTS
 62
     0
100
AcDbPoint
 10
-781.7205843718193
 20
-4037.119342253549
 30
0.0
  0
ENDBLK
  5
3294
330
3287
100
AcDbEntity
  8
0
100
AcDbBlockEnd
  0
BLOCK
  5
329F
330
3295
100
AcDbEntity
  8
0
100
AcDbBlockBegin
  2
*D26
 70
     1
 10
0.0
 20
0.0
 30
0.0
  3
*D26
  1

  0
LINE
  5
361C
330
3295
100
AcDbEntity
  8
DIM
370
    -2
100
AcDbLine
 10
-769.3745417761284
 20
-4032.119342253548
 30
0.0
 11
-794.1810967012397
 21
-4032.119342253548
 31
0.0
  0
LINE
  5
361D
330
3295
100
AcDbEntity
  8
DIM
370
    -2
100
AcDbLine
 10
-770.0090907993553
 20
-4012.119342253549
 30
0.0
 11
-794.1810967012397
 21
-4012.119342253549
 31
0.0
  0
LINE
  5
361E
330
3295
100
AcDbEntity
  8
DIM
370
    -2
100
AcDbLine
 10
-792.1810967012397
 20
-4027.119342253548
 30
0.0
 11
-792.1810967012397
 21
-4017.119342253549
 31
0.0
  0
SOLID
  5
361F
330
3295
100
AcDbEntity
  8
DIM
100
AcDbTrace
 10
-793.0144300345731
 20
-4027.119342253548
 30
0.0
 11
-791.3477633679064
 21
-4027.119342253548
 31
0.0
 12
-792.1810967012397
 22
-4032.119342253548
 32
0.0
 13
-792.1810967012397
 23
-4032.119342253548
 33
0.0
  0
SOLID
  5
3620
330
3295
100
AcDbEntity
  8
DIM
100
AcDbTrace
 10
-793.0144300345731
 20
-4017.119342253549
 30
0.0
 11
-791.3477633679064
 21
-4017.119342253549
 31
0.0
 12
-792.1810967012397
 22
-4012.119342253549
 32
0.0
 13
-792.1810967012397
 23
-4012.119342253549
 33
0.0
  0
MTEXT
  5
3621
330
3295
100
AcDbEntity
  8
DIM
100
AcDbMText
 10
-794.931096701239
 20
-4022.119342253549
 30
0.0
 40
3.5
 41
0.0
 71
     5
 72
     1
  1
\A1;20max
  7
ESKD
 11
0.0000000000000001
 21
1.0
 31
0.0
 73
     1
 44
1.0
  0
POINT
  5
3622
330
3295
100
AcDbEntity
  8
DEFPOINTS
 62
     0
100
AcDbPoint
 10
-769.3745417761284
 20
-4032.119342253548
 30
0.0
  0
POINT
  5
3623
330
3295
100
AcDbEntity
  8
DEFPOINTS
 62
     0
100
AcDbPoint
 10
-770.0090907993553
 20
-4012.119342253549
 30
0.0
  0
POINT
  5
3624
330
3295
100
AcDbEntity
  8
DEFPOINTS
 62
     0
100
AcDbPoint
 10
-792.1810967012397
 20
-4012.119342253549
 30
0.0
  0
ENDBLK
  5
32A0
330
3295
100
AcDbEntity
  8
0
100
AcDbBlockEnd
  0
BLOCK
  5
32AB
330
32A1
100
AcDbEntity
  8
0
100
AcDbBlockBegin
  2
*D27
 70
     1
 10
0.0
 20
0.0
 30
0.0
  3
*D27
  1

  0
LINE
  5
3625
330
32A1
100
AcDbEntity
  8
DIM
370
    -2
100
AcDbLine
 10
-2100.261106439365
 20
-3318.095109190472
 30
0.0
 11
-2100.261106439365
 21
-3314.491518760606
 31
0.0
  0
LINE
  5
3626
330
32A1
100
AcDbEntity
  8
DIM
370
    -2
100
AcDbLine
 10
-2083.261106439362
 20
-3318.438735711158
 30
0.0
 11
-2083.261106439362
 21
-3314.491518760606
 31
0.0
  0
LINE
  5
3627
330
32A1
100
AcDbEntity
  8
DIM
370
    -2
100
AcDbLine
 10
-2095.261106439365
 20
-3316.491518760606
 30
0.0
 11
-2088.261106439361
 21
-3316.491518760606
 31
0.0
  0
MTEXT
  5
3628
330
32A1
100
AcDbEntity
  8
DIM
100
AcDbMText
 10
-2071.9886024097
 20
-3312.991518760606
 30
0.0
 40
3.5
 41
0.0
 71
     5
 72
     1
  1
\A1;17
  7
ESKD
 73
     1
 44
1.0
  0
SOLID
  5
3629
330
32A1
100
AcDbEntity
  8
DIM
100
AcDbTrace
 10
-2095.261106439365
 20
-3315.658185427273
 30
0.0
 11
-2095.261106439365
 21
-3317.32485209394
 31
0.0
 12
-2100.261106439365
 22
-3316.491518760606
 32
0.0
 13
-2100.261106439365
 23
-3316.491518760606
 33
0.0
  0
SOLID
  5
362A
330
32A1
100
AcDbEntity
  8
DIM
100
AcDbTrace
 10
-2088.261106439361
 20
-3315.658185427273
 30
0.0
 11
-2088.261106439361
 21
-3317.32485209394
 31
0.0
 12
-2083.261106439362
 22
-3316.491518760606
 32
0.0
 13
-2083.261106439362
 23
-3316.491518760606
 33
0.0
  0
POINT
  5
362B
330
32A1
100
AcDbEntity
  8
DEFPOINTS
 62
     0
100
AcDbPoint
 10
-2100.261106439365
 20
-3318.095109190472
 30
0.0
  0
POINT
  5
362C
330
32A1
100
AcDbEntity
  8
DEFPOINTS
 62
     0
100
AcDbPoint
 10
-2083.261106439362
 20
-3318.438735711158
 30
0.0
  0
POINT
  5
362D
330
32A1
100
AcDbEntity
  8
DEFPOINTS
 62
     0
100
AcDbPoint
 10
-2083.261106439362
 20
-3316.491518760606
 30
0.0
  0
ENDBLK
  5
32AC
330
32A1
100
AcDbEntity
  8
0
100
AcDbBlockEnd
  0
BLOCK
  5
32B7
330
32AD
100
AcDbEntity
  8
0
100
AcDbBlockBegin
  2
*D28
 70
     1
 10
0.0
 20
0.0
 30
0.0
  3
*D28
  1

  0
LINE
  5
362E
330
32AD
100
AcDbEntity
  8
DIM
370
    -2
100
AcDbLine
 10
-2101.761106439365
 20
-3347.414353716755
 30
0.0
 11
-2101.761106439365
 21
-3381.06326086405
 31
0.0
  0
LINE
  5
362F
330
32AD
100
AcDbEntity
  8
DIM
370
    -2
100
AcDbLine
 10
-2081.761106439365
 20
-3347.414353716755
 30
0.0
 11
-2081.761106439365
 21
-3381.06326086405
 31
0.0
  0
LINE
  5
3630
330
32AD
100
AcDbEntity
  8
DIM
370
    -2
100
AcDbLine
 10
-2096.761106439365
 20
-3379.06326086405
 30
0.0
 11
-2086.761106439365
 21
-3379.06326086405
 31
0.0
  0
MTEXT
  5
3631
330
32AD
100
AcDbEntity
  8
DIM
100
AcDbMText
 10
-2091.761106439365
 20
-3389.56326086405
 30
0.0
 40
3.5
 41
0.0
 71
     5
 72
     1
  1
\A1;М20х1.5-8g
  7
ESKD
 73
     1
 44
1.0
  0
SOLID
  5
3632
330
32AD
100
AcDbEntity
  8
DIM
100
AcDbTrace
 10
-2096.761106439365
 20
-3378.229927530717
 30
0.0
 11
-2096.761106439365
 21
-3379.896594197383
 31
0.0
 12
-2101.761106439365
 22
-3379.06326086405
 32
0.0
 13
-2101.761106439365
 23
-3379.06326086405
 33
0.0
  0
SOLID
  5
3633
330
32AD
100
AcDbEntity
  8
DIM
100
AcDbTrace
 10
-2086.761106439365
 20
-3378.229927530717
 30
0.0
 11
-2086.761106439365
 21
-3379.896594197383
 31
0.0
 12
-2081.761106439365
 22
-3379.06326086405
 32
0.0
 13
-2081.761106439365
 23
-3379.06326086405
 33
0.0
  0
POINT
  5
3634
330
32AD
100
AcDbEntity
  8
DEFPOINTS
 62
     0
100
AcDbPoint
 10
-2101.761106439365
 20
-3347.414353716755
 30
0.0
  0
POINT
  5
3635
330
32AD
100
AcDbEntity
  8
DEFPOINTS
 62
     0
100
AcDbPoint
 10
-2081.761106439365
 20
-3347.414353716755
 30
0.0
  0
POINT
  5
3636
330
32AD
100
AcDbEntity
  8
DEFPOINTS
 62
     0
100
AcDbPoint
 10
-2081.761106439365
 20
-3379.06326086405
 30
0.0
  0
ENDBLK
  5
32B8
330
32AD
100
AcDbEntity
  8
0
100
AcDbBlockEnd
  0
BLOCK
  5
32C5
330
32B9
100
AcDbEntity
  8
0
100
AcDbBlockBegin
  2
*D29
 70
     1
 10
0.0
 20
0.0
 30
0.0
  3
*D29
  1

  0
LINE
  5
3637
330
32B9
100
AcDbEntity
  8
DIM
370
    -2
100
AcDbLine
 10
-2094.761106439361
 20
-3353.414353716754
 30
0.0
 11
-2094.761106439361
 21
-3369.936768674174
 31
0.0
  0
LINE
  5
3638
330
32B9
100
AcDbEntity
  8
DIM
370
    -2
100
AcDbLine
 10
-2088.761106439362
 20
-3353.414353716754
 30
0.0
 11
-2088.761106439362
 21
-3369.936768674174
 31
0.0
  0
LINE
  5
3639
330
32B9
100
AcDbEntity
  8
DIM
370
    -2
100
AcDbLine
 10
-2099.761106439361
 20
-3367.936768674173
 30
0.0
 11
-2104.761106439362
 21
-3367.936768674173
 31
0.0
  0
LINE
  5
363A
330
32B9
100
AcDbEntity
  8
DIM
370
    -2
100
AcDbLine
 10
-2083.761106439361
 20
-3367.936768674173
 30
0.0
 11
-2078.761106439361
 21
-3367.936768674173
 31
0.0
  0
MTEXT
  5
363B
330
32B9
100
AcDbEntity
  8
DIM
100
AcDbMText
 10
-2091.761106439362
 20
-3376.686768674173
 30
0.0
 40
3.5
 41
0.0
 71
     5
 72
     1
  1
\A1;d@J1
  7
ESKD
 73
     1
 44
1.0
  0
LINE
  5
363C
330
32B9
100
AcDbEntity
  8
DIM
370
    -2
100
AcDbLine
 10
-2094.761106439361
 20
-3367.936768674173
 30
0.0
 11
-2088.761106439362
 21
-3367.936768674173
 31
0.0
  0
SOLID
  5
363D
330
32B9
100
AcDbEntity
  8
DIM
100
AcDbTrace
 10
-2099.761106439361
 20
-3367.10343534084
 30
0.0
 11
-2099.761106439361
 21
-3368.770102007507
 31
0.0
 12
-2094.761106439361
 22
-3367.936768674173
 32
0.0
 13
-2094.761106439361
 23
-3367.936768674173
 33
0.0
  0
SOLID
  5
363E
330
32B9
100
AcDbEntity
  8
DIM
100
AcDbTrace
 10
-2083.761106439361
 20
-3367.10343534084
 30
0.0
 11
-2083.761106439361
 21
-3368.770102007507
 31
0.0
 12
-2088.761106439362
 22
-3367.936768674173
 32
0.0
 13
-2088.761106439362
 23
-3367.936768674173
 33
0.0
  0
POINT
  5
363F
330
32B9
100
AcDbEntity
  8
DEFPOINTS
 62
     0
100
AcDbPoint
 10
-2094.761106439361
 20
-3353.414353716754
 30
0.0
  0
POINT
  5
3640
330
32B9
100
AcDbEntity
  8
DEFPOINTS
 62
     0
100
AcDbPoint
 10
-2088.761106439362
 20
-3353.414353716754
 30
0.0
  0
POINT
  5
3641
330
32B9
100
AcDbEntity
  8
DEFPOINTS
 62
     0
100
AcDbPoint
 10
-2088.761106439362
 20
-3367.936768674173
 30
0.0
  0
ENDBLK
  5
32C6
330
32B9
100
AcDbEntity
  8
0
100
AcDbBlockEnd
  0
BLOCK
  5
32D3
330
32C7
100
AcDbEntity
  8
0
100
AcDbBlockBegin
  2
*D30
 70
     1
 10
0.0
 20
0.0
 30
0.0
  3
*D30
  1

  0
LINE
  5
3642
330
32C7
100
AcDbEntity
  8
DIM
370
    -2
100
AcDbLine
 10
-2101.761106439369
 20
-3325.816003071212
 30
0.0
 11
-2114.104749917297
 21
-3325.816003071212
 31
0.0
  0
LINE
  5
3643
330
32C7
100
AcDbEntity
  8
DIM
370
    -2
100
AcDbLine
 10
-2101.761106439369
 20
-3313.816003071214
 30
0.0
 11
-2114.104749917297
 21
-3313.816003071214
 31
0.0
  0
LINE
  5
3644
330
32C7
100
AcDbEntity
  8
DIM
370
    -2
100
AcDbLine
 10
-2112.104749917298
 20
-3330.816003071212
 30
0.0
 11
-2112.104749917298
 21
-3335.816003071212
 31
0.0
  0
LINE
  5
3645
330
32C7
100
AcDbEntity
  8
DIM
370
    -2
100
AcDbLine
 10
-2112.104749917298
 20
-3308.816003071213
 30
0.0
 11
-2112.104749917298
 21
-3303.816003071214
 31
0.0
  0
MTEXT
  5
3646
330
32C7
100
AcDbEntity
  8
DIM
100
AcDbMText
 10
-2117.354749917296
 20
-3319.816003071213
 30
0.0
 40
3.5
 41
0.0
 71
     5
 72
     1
  1
\A1;12max
  7
ESKD
 11
0.0000000000000001
 21
1.0
 31
0.0
 73
     1
 44
1.0
  0
LINE
  5
3647
330
32C7
100
AcDbEntity
  8
DIM
370
    -2
100
AcDbLine
 10
-2112.104749917298
 20
-3325.816003071212
 30
0.0
 11
-2112.104749917298
 21
-3313.816003071214
 31
0.0
  0
SOLID
  5
3648
330
32C7
100
AcDbEntity
  8
DIM
100
AcDbTrace
 10
-2112.938083250631
 20
-3330.816003071212
 30
0.0
 11
-2111.271416583964
 21
-3330.816003071212
 31
0.0
 12
-2112.104749917298
 22
-3325.816003071212
 32
0.0
 13
-2112.104749917298
 23
-3325.816003071212
 33
0.0
  0
SOLID
  5
3649
330
32C7
100
AcDbEntity
  8
DIM
100
AcDbTrace
 10
-2112.938083250631
 20
-3308.816003071213
 30
0.0
 11
-2111.271416583964
 21
-3308.816003071213
 31
0.0
 12
-2112.104749917298
 22
-3313.816003071214
 32
0.0
 13
-2112.104749917298
 23
-3313.816003071214
 33
0.0
  0
POINT
  5
364A
330
32C7
100
AcDbEntity
  8
DEFPOINTS
 62
     0
100
AcDbPoint
 10
-2101.761106439369
 20
-3325.816003071212
 30
0.0
  0
POINT
  5
364B
330
32C7
100
AcDbEntity
  8
DEFPOINTS
 62
     0
100
AcDbPoint
 10
-2101.761106439369
 20
-3313.816003071214
 30
0.0
  0
POINT
  5
364C
330
32C7
100
AcDbEntity
  8
DEFPOINTS
 62
     0
100
AcDbPoint
 10
-2112.104749917298
 20
-3313.816003071214
 30
0.0
  0
ENDBLK
  5
32D4
330
32C7
100
AcDbEntity
  8
0
100
AcDbBlockEnd
  0
BLOCK
  5
32DF
330
32D5
100
AcDbEntity
  8
0
100
AcDbBlockBegin
  2
*D31
 70
     1
 10
0.0
 20
0.0
 30
0.0
  3
*D31
  1

  0
LINE
  5
364D
330
32D5
100
AcDbEntity
  8
DIM
370
    -2
100
AcDbLine
 10
-2100.761106439365
 20
-3348.414353716749
 30
0.0
 11
-2125.567661364476
 21
-3348.414353716749
 31
0.0
  0
LINE
  5
364E
330
32D5
100
AcDbEntity
  8
DIM
370
    -2
100
AcDbLine
 10
-2101.395655462592
 20
-3328.41435371675
 30
0.0
 11
-2125.567661364476
 21
-3328.41435371675
 31
0.0
  0
LINE
  5
364F
330
32D5
100
AcDbEntity
  8
DIM
370
    -2
100
AcDbLine
 10
-2123.567661364476
 20
-3343.414353716749
 30
0.0
 11
-2123.567661364476
 21
-3333.414353716749
 31
0.0
  0
SOLID
  5
3650
330
32D5
100
AcDbEntity
  8
DIM
100
AcDbTrace
 10
-2124.40099469781
 20
-3343.414353716749
 30
0.0
 11
-2122.734328031143
 21
-3343.414353716749
 31
0.0
 12
-2123.567661364476
 22
-3348.414353716749
 32
0.0
 13
-2123.567661364476
 23
-3348.414353716749
 33
0.0
  0
SOLID
  5
3651
330
32D5
100
AcDbEntity
  8
DIM
100
AcDbTrace
 10
-2124.40099469781
 20
-3333.414353716749
 30
0.0
 11
-2122.734328031143
 21
-3333.414353716749
 31
0.0
 12
-2123.567661364476
 22
-3328.41435371675
 32
0.0
 13
-2123.567661364476
 23
-3328.41435371675
 33
0.0
  0
MTEXT
  5
3652
330
32D5
100
AcDbEntity
  8
DIM
100
AcDbMText
 10
-2126.317661364476
 20
-3338.41435371675
 30
0.0
 40
3.5
 41
0.0
 71
     5
 72
     1
  1
\A1;l@J1
  7
ESKD
 11
0.0000000000000001
 21
1.0
 31
0.0
 73
     1
 44
1.0
  0
POINT
  5
3653
330
32D5
100
AcDbEntity
  8
DEFPOINTS
 62
     0
100
AcDbPoint
 10
-2100.761106439365
 20
-3348.414353716749
 30
0.0
  0
POINT
  5
3654
330
32D5
100
AcDbEntity
  8
DEFPOINTS
 62
     0
100
AcDbPoint
 10
-2101.395655462592
 20
-3328.41435371675
 30
0.0
  0
POINT
  5
3655
330
32D5
100
AcDbEntity
  8
DEFPOINTS
 62
     0
100
AcDbPoint
 10
-2123.567661364476
 20
-3328.41435371675
 30
0.0
  0
ENDBLK
  5
32E0
330
32D5
100
AcDbEntity
  8
0
100
AcDbBlockEnd
  0
BLOCK
  5
32EB
330
32E1
100
AcDbEntity
  8
0
100
AcDbBlockBegin
  2
*D32
 70
     1
 10
0.0
 20
0.0
 30
0.0
  3
*D32
  1

  0
LINE
  5
3656
330
32E1
100
AcDbEntity
  8
DIM
370
    -2
100
AcDbLine
 10
-1859.440699775951
 20
-3411.188740623031
 30
0.0
 11
-1890.814715389799
 21
-3411.188740623031
 31
0.0
  0
LINE
  5
3657
330
32E1
100
AcDbEntity
  8
DIM
370
    -2
100
AcDbLine
 10
-1859.440699775948
 20
-3311.188740623031
 30
0.0
 11
-1890.814715389799
 21
-3311.188740623031
 31
0.0
  0
LINE
  5
3658
330
32E1
100
AcDbEntity
  8
DIM
370
    -2
100
AcDbLine
 10
-1888.8147153898
 20
-3406.188740623031
 30
0.0
 11
-1888.8147153898
 21
-3316.188740623031
 31
0.0
  0
SOLID
  5
3659
330
32E1
100
AcDbEntity
  8
DIM
100
AcDbTrace
 10
-1889.648048723133
 20
-3406.188740623031
 30
0.0
 11
-1887.981382056466
 21
-3406.188740623031
 31
0.0
 12
-1888.8147153898
 22
-3411.188740623031
 32
0.0
 13
-1888.8147153898
 23
-3411.188740623031
 33
0.0
  0
SOLID
  5
365A
330
32E1
100
AcDbEntity
  8
DIM
100
AcDbTrace
 10
-1889.648048723133
 20
-3316.188740623031
 30
0.0
 11
-1887.981382056466
 21
-3316.188740623031
 31
0.0
 12
-1888.8147153898
 22
-3311.188740623031
 32
0.0
 13
-1888.8147153898
 23
-3311.188740623031
 33
0.0
  0
MTEXT
  5
365B
330
32E1
100
AcDbEntity
  8
DIM
100
AcDbMText
 10
-1891.564715389799
 20
-3361.188740623031
 30
0.0
 40
3.5
 41
0.0
 71
     5
 72
     1
  1
\A1;D
  7
ESKD
 11
0.0000000000000001
 21
1.0
 31
0.0
 73
     1
 44
1.0
  0
POINT
  5
365C
330
32E1
100
AcDbEntity
  8
DEFPOINTS
 62
     0
100
AcDbPoint
 10
-1859.440699775951
 20
-3411.188740623031
 30
0.0
  0
POINT
  5
365D
330
32E1
100
AcDbEntity
  8
DEFPOINTS
 62
     0
100
AcDbPoint
 10
-1859.440699775948
 20
-3311.188740623031
 30
0.0
  0
POINT
  5
365E
330
32E1
100
AcDbEntity
  8
DEFPOINTS
 62
     0
100
AcDbPoint
 10
-1888.8147153898
 20
-3311.188740623031
 30
0.0
  0
ENDBLK
  5
32EC
330
32E1
100
AcDbEntity
  8
0
100
AcDbBlockEnd
  0
BLOCK
  5
32F7
330
32ED
100
AcDbEntity
  8
0
100
AcDbBlockBegin
  2
*D33
 70
     1
 10
0.0
 20
0.0
 30
0.0
  3
*D33
  1

  0
LINE
  5
365F
330
32ED
100
AcDbEntity
  8
DIM
370
    -2
100
AcDbLine
 10
-1321.635203792412
 20
-3775.313391718566
 30
0.0
 11
-1321.635203792412
 21
-3703.300776837552
 31
0.0
  0
LINE
  5
3660
330
32ED
100
AcDbEntity
  8
DIM
370
    -2
100
AcDbLine
 10
-1221.635203792412
 20
-3775.313391718566
 30
0.0
 11
-1221.635203792412
 21
-3703.300776837552
 31
0.0
  0
LINE
  5
3661
330
32ED
100
AcDbEntity
  8
DIM
370
    -2
100
AcDbLine
 10
-1316.635203792412
 20
-3705.300776837552
 30
0.0
 11
-1226.635203792412
 21
-3705.300776837552
 31
0.0
  0
SOLID
  5
3662
330
32ED
100
AcDbEntity
  8
DIM
100
AcDbTrace
 10
-1316.635203792412
 20
-3704.467443504218
 30
0.0
 11
-1316.635203792412
 21
-3706.134110170886
 31
0.0
 12
-1321.635203792412
 22
-3705.300776837552
 32
0.0
 13
-1321.635203792412
 23
-3705.300776837552
 33
0.0
  0
SOLID
  5
3663
330
32ED
100
AcDbEntity
  8
DIM
100
AcDbTrace
 10
-1226.635203792412
 20
-3704.467443504218
 30
0.0
 11
-1226.635203792412
 21
-3706.134110170886
 31
0.0
 12
-1221.635203792412
 22
-3705.300776837552
 32
0.0
 13
-1221.635203792412
 23
-3705.300776837552
 33
0.0
  0
MTEXT
  5
3664
330
32ED
100
AcDbEntity
  8
DIM
100
AcDbMText
 10
-1271.635203792412
 20
-3702.550776837552
 30
0.0
 40
3.5
 41
0.0
 71
     5
 72
     1
  1
\A1;D
  7
ESKD
 73
     1
 44
1.0
  0
POINT
  5
3665
330
32ED
100
AcDbEntity
  8
DEFPOINTS
 62
     0
100
AcDbPoint
 10
-1321.635203792412
 20
-3775.313391718566
 30
0.0
  0
POINT
  5
3666
330
32ED
100
AcDbEntity
  8
DEFPOINTS
 62
     0
100
AcDbPoint
 10
-1221.635203792412
 20
-3775.313391718566
 30
0.0
  0
POINT
  5
3667
330
32ED
100
AcDbEntity
  8
DEFPOINTS
 62
     0
100
AcDbPoint
 10
-1221.635203792412
 20
-3705.300776837552
 30
0.0
  0
ENDBLK
  5
32F8
330
32ED
100
AcDbEntity
  8
0
100
AcDbBlockEnd
  0
BLOCK
  5
3303
330
32F9
100
AcDbEntity
  8
0
100
AcDbBlockBegin
  2
*D34
 70
     1
 10
0.0
 20
0.0
 30
0.0
  3
*D34
  1

  0
LINE
  5
3668
330
32F9
100
AcDbEntity
  8
DIM
370
    -2
100
AcDbLine
 10
-2032.423944685172
 20
-3622.736345973463
 30
0.0
 11
-2032.423944685172
 21
-3587.824791871408
 31
0.0
  0
LINE
  5
3669
330
32F9
100
AcDbEntity
  8
DIM
370
    -2
100
AcDbLine
 10
-1952.423944685172
 20
-3622.736345973466
 30
0.0
 11
-1952.423944685172
 21
-3587.824791871408
 31
0.0
  0
LINE
  5
366A
330
32F9
100
AcDbEntity
  8
DIM
370
    -2
100
AcDbLine
 10
-2027.423944685172
 20
-3589.824791871408
 30
0.0
 11
-1957.423944685172
 21
-3589.824791871408
 31
0.0
  0
SOLID
  5
366B
330
32F9
100
AcDbEntity
  8
DIM
100
AcDbTrace
 10
-2027.423944685172
 20
-3588.991458538075
 30
0.0
 11
-2027.423944685172
 21
-3590.658125204742
 31
0.0
 12
-2032.423944685172
 22
-3589.824791871408
 32
0.0
 13
-2032.423944685172
 23
-3589.824791871408
 33
0.0
  0
SOLID
  5
366C
330
32F9
100
AcDbEntity
  8
DIM
100
AcDbTrace
 10
-1957.423944685172
 20
-3588.991458538075
 30
0.0
 11
-1957.423944685172
 21
-3590.658125204742
 31
0.0
 12
-1952.423944685172
 22
-3589.824791871408
 32
0.0
 13
-1952.423944685172
 23
-3589.824791871408
 33
0.0
  0
MTEXT
  5
366D
330
32F9
100
AcDbEntity
  8
DIM
100
AcDbMText
 10
-1992.423944685172
 20
-3587.074791871408
 30
0.0
 40
3.5
 41
0.0
 71
     5
 72
     1
  1
\A1;А
  7
ESKD
 73
     1
 44
1.0
  0
POINT
  5
366E
330
32F9
100
AcDbEntity
  8
DEFPOINTS
 62
     0
100
AcDbPoint
 10
-2032.423944685172
 20
-3622.736345973463
 30
0.0
  0
POINT
  5
366F
330
32F9
100
AcDbEntity
  8
DEFPOINTS
 62
     0
100
AcDbPoint
 10
-1952.423944685172
 20
-3622.736345973466
 30
0.0
  0
POINT
  5
3670
330
32F9
100
AcDbEntity
  8
DEFPOINTS
 62
     0
100
AcDbPoint
 10
-1952.423944685172
 20
-3589.824791871408
 30
0.0
  0
ENDBLK
  5
3304
330
32F9
100
AcDbEntity
  8
0
100
AcDbBlockEnd
  0
BLOCK
  5
330F
330
3305
100
AcDbEntity
  8
0
100
AcDbBlockBegin
  2
*D35
 70
     1
 10
0.0
 20
0.0
 30
0.0
  3
*D35
  1

  0
LINE
  5
3671
330
3305
100
AcDbEntity
  8
DIM
370
    -2
100
AcDbLine
 10
-2046.423944685173
 20
-3662.736345973462
 30
0.0
 11
-2046.423944685173
 21
-3781.138977997424
 31
0.0
  0
LINE
  5
3672
330
3305
100
AcDbEntity
  8
DIM
370
    -2
100
AcDbLine
 10
-1938.423944685172
 20
-3662.736345973462
 30
0.0
 11
-1938.423944685172
 21
-3781.138977997424
 31
0.0
  0
LINE
  5
3673
330
3305
100
AcDbEntity
  8
DIM
370
    -2
100
AcDbLine
 10
-2041.423944685172
 20
-3779.138977997423
 30
0.0
 11
-1943.423944685172
 21
-3779.138977997423
 31
0.0
  0
SOLID
  5
3674
330
3305
100
AcDbEntity
  8
DIM
100
AcDbTrace
 10
-2041.423944685172
 20
-3778.30564466409
 30
0.0
 11
-2041.423944685172
 21
-3779.972311330757
 31
0.0
 12
-2046.423944685173
 22
-3779.138977997423
 32
0.0
 13
-2046.423944685173
 23
-3779.138977997423
 33
0.0
  0
SOLID
  5
3675
330
3305
100
AcDbEntity
  8
DIM
100
AcDbTrace
 10
-1943.423944685172
 20
-3778.30564466409
 30
0.0
 11
-1943.423944685172
 21
-3779.972311330757
 31
0.0
 12
-1938.423944685172
 22
-3779.138977997423
 32
0.0
 13
-1938.423944685172
 23
-3779.138977997423
 33
0.0
  0
MTEXT
  5
3676
330
3305
100
AcDbEntity
  8
DIM
100
AcDbMText
 10
-1992.423944685172
 20
-3776.388977997424
 30
0.0
 40
3.5
 41
0.0
 71
     5
 72
     1
  1
\A1;В
  7
ESKD
 73
     1
 44
1.0
  0
POINT
  5
3677
330
3305
100
AcDbEntity
  8
DEFPOINTS
 62
     0
100
AcDbPoint
 10
-2046.423944685173
 20
-3662.736345973462
 30
0.0
  0
POINT
  5
3678
330
3305
100
AcDbEntity
  8
DEFPOINTS
 62
     0
100
AcDbPoint
 10
-1938.423944685172
 20
-3662.736345973462
 30
0.0
  0
POINT
  5
3679
330
3305
100
AcDbEntity
  8
DEFPOINTS
 62
     0
100
AcDbPoint
 10
-1938.423944685172
 20
-3779.138977997423
 30
0.0
  0
ENDBLK
  5
3310
330
3305
100
AcDbEntity
  8
0
100
AcDbBlockEnd
  0
BLOCK
  5
331B
330
3311
100
AcDbEntity
  8
0
100
AcDbBlockBegin
  2
*D36
 70
     1
 10
0.0
 20
0.0
 30
0.0
  3
*D36
  1

  0
LINE
  5
367A
330
3311
100
AcDbEntity
  8
DIM
370
    -2
100
AcDbLine
 10
-1855.036793495136
 20
-3608.736345973463
 30
0.0
 11
-1877.966864260023
 21
-3608.736345973463
 31
0.0
  0
LINE
  5
367B
330
3311
100
AcDbEntity
  8
DIM
370
    -2
100
AcDbLine
 10
-1855.03679349514
 20
-3716.736345973461
 30
0.0
 11
-1877.966864260023
 21
-3716.736345973461
 31
0.0
  0
LINE
  5
367C
330
3311
100
AcDbEntity
  8
DIM
370
    -2
100
AcDbLine
 10
-1875.966864260023
 20
-3613.736345973463
 30
0.0
 11
-1875.966864260023
 21
-3711.736345973461
 31
0.0
  0
SOLID
  5
367D
330
3311
100
AcDbEntity
  8
DIM
100
AcDbTrace
 10
-1876.800197593357
 20
-3613.736345973463
 30
0.0
 11
-1875.13353092669
 21
-3613.736345973463
 31
0.0
 12
-1875.966864260023
 22
-3608.736345973463
 32
0.0
 13
-1875.966864260023
 23
-3608.736345973463
 33
0.0
  0
SOLID
  5
367E
330
3311
100
AcDbEntity
  8
DIM
100
AcDbTrace
 10
-1876.800197593357
 20
-3711.736345973461
 30
0.0
 11
-1875.13353092669
 21
-3711.736345973461
 31
0.0
 12
-1875.966864260023
 22
-3716.736345973461
 32
0.0
 13
-1875.966864260023
 23
-3716.736345973461
 33
0.0
  0
MTEXT
  5
367F
330
3311
100
AcDbEntity
  8
DIM
100
AcDbMText
 10
-1878.716864260023
 20
-3662.736345973462
 30
0.0
 40
3.5
 41
0.0
 71
     5
 72
     1
  1
\A1;В
  7
ESKD
 11
0.0000000000000001
 21
1.0
 31
0.0
 73
     1
 44
1.0
  0
POINT
  5
3680
330
3311
100
AcDbEntity
  8
DEFPOINTS
 62
     0
100
AcDbPoint
 10
-1855.036793495136
 20
-3608.736345973463
 30
0.0
  0
POINT
  5
3681
330
3311
100
AcDbEntity
  8
DEFPOINTS
 62
     0
100
AcDbPoint
 10
-1855.03679349514
 20
-3716.736345973461
 30
0.0
  0
POINT
  5
3682
330
3311
100
AcDbEntity
  8
DEFPOINTS
 62
     0
100
AcDbPoint
 10
-1875.966864260023
 20
-3716.736345973461
 30
0.0
  0
ENDBLK
  5
331C
330
3311
100
AcDbEntity
  8
0
100
AcDbBlockEnd
  0
BLOCK
  5
3327
330
331D
100
AcDbEntity
  8
0
100
AcDbBlockBegin
  2
*D37
 70
     1
 10
0.0
 20
0.0
 30
0.0
  3
*D37
  1

  0
LINE
  5
3683
330
331D
100
AcDbEntity
  8
DIM
370
    -2
100
AcDbLine
 10
-1830.036793495132
 20
-3762.736345973463
 30
0.0
 11
-1770.949927714221
 21
-3762.736345973463
 31
0.0
  0
LINE
  5
3684
330
331D
100
AcDbEntity
  8
DIM
370
    -2
100
AcDbLine
 10
-1802.03679349514
 20
-3662.736345973462
 30
0.0
 11
-1770.949927714221
 21
-3662.736345973462
 31
0.0
  0
LINE
  5
3685
330
331D
100
AcDbEntity
  8
DIM
370
    -2
100
AcDbLine
 10
-1772.949927714221
 20
-3757.736345973463
 30
0.0
 11
-1772.949927714221
 21
-3667.736345973463
 31
0.0
  0
SOLID
  5
3686
330
331D
100
AcDbEntity
  8
DIM
100
AcDbTrace
 10
-1773.783261047554
 20
-3757.736345973463
 30
0.0
 11
-1772.116594380888
 21
-3757.736345973463
 31
0.0
 12
-1772.949927714221
 22
-3762.736345973463
 32
0.0
 13
-1772.949927714221
 23
-3762.736345973463
 33
0.0
  0
SOLID
  5
3687
330
331D
100
AcDbEntity
  8
DIM
100
AcDbTrace
 10
-1773.783261047554
 20
-3667.736345973463
 30
0.0
 11
-1772.116594380888
 21
-3667.736345973463
 31
0.0
 12
-1772.949927714221
 22
-3662.736345973462
 32
0.0
 13
-1772.949927714221
 23
-3662.736345973462
 33
0.0
  0
MTEXT
  5
3688
330
331D
100
AcDbEntity
  8
DIM
100
AcDbMText
 10
-1775.69992771422
 20
-3712.736345973463
 30
0.0
 40
3.5
 41
0.0
 71
     5
 72
     1
  1
\A1;H@J1
  7
ESKD
 11
0.0000000000000001
 21
1.0
 31
0.0
 73
     1
 44
1.0
  0
POINT
  5
3689
330
331D
100
AcDbEntity
  8
DEFPOINTS
 62
     0
100
AcDbPoint
 10
-1830.036793495132
 20
-3762.736345973463
 30
0.0
  0
POINT
  5
368A
330
331D
100
AcDbEntity
  8
DEFPOINTS
 62
     0
100
AcDbPoint
 10
-1802.03679349514
 20
-3662.736345973462
 30
0.0
  0
POINT
  5
368B
330
331D
100
AcDbEntity
  8
DEFPOINTS
 62
     0
100
AcDbPoint
 10
-1772.949927714221
 20
-3662.736345973462
 30
0.0
  0
ENDBLK
  5
3328
330
331D
100
AcDbEntity
  8
0
100
AcDbBlockEnd
  0
BLOCK
  5
3333
330
3329
100
AcDbEntity
  8
0
100
AcDbBlockBegin
  2
*D38
 70
     1
 10
0.0
 20
0.0
 30
0.0
  3
*D38
  1

  0
LINE
  5
368C
330
3329
100
AcDbEntity
  8
DIM
370
    -2
100
AcDbLine
 10
-1833.036793495136
 20
-3762.736345973463
 30
0.0
 11
-1833.036793495136
 21
-3783.927306698454
 31
0.0
  0
LINE
  5
368D
330
3329
100
AcDbEntity
  8
DIM
370
    -2
100
AcDbLine
 10
-1855.03679349514
 20
-3716.736345973461
 30
0.0
 11
-1855.03679349514
 21
-3783.927306698454
 31
0.0
  0
LINE
  5
368E
330
3329
100
AcDbEntity
  8
DIM
370
    -2
100
AcDbLine
 10
-1838.036793495136
 20
-3781.927306698454
 30
0.0
 11
-1850.03679349514
 21
-3781.927306698454
 31
0.0
  0
SOLID
  5
368F
330
3329
100
AcDbEntity
  8
DIM
100
AcDbTrace
 10
-1838.036793495136
 20
-3781.09397336512
 30
0.0
 11
-1838.036793495136
 21
-3782.760640031787
 31
0.0
 12
-1833.036793495136
 22
-3781.927306698454
 32
0.0
 13
-1833.036793495136
 23
-3781.927306698454
 33
0.0
  0
SOLID
  5
3690
330
3329
100
AcDbEntity
  8
DIM
100
AcDbTrace
 10
-1850.03679349514
 20
-3781.09397336512
 30
0.0
 11
-1850.03679349514
 21
-3782.760640031787
 31
0.0
 12
-1855.03679349514
 22
-3781.927306698454
 32
0.0
 13
-1855.03679349514
 23
-3781.927306698454
 33
0.0
  0
MTEXT
  5
3691
330
3329
100
AcDbEntity
  8
DIM
100
AcDbMText
 10
-1844.036793495138
 20
-3779.177306698453
 30
0.0
 40
3.5
 41
0.0
 71
     5
 72
     1
  1
\A1;l
  7
ESKD
 73
     1
 44
1.0
  0
POINT
  5
3692
330
3329
100
AcDbEntity
  8
DEFPOINTS
 62
     0
100
AcDbPoint
 10
-1833.036793495136
 20
-3762.736345973463
 30
0.0
  0
POINT
  5
3693
330
3329
100
AcDbEntity
  8
DEFPOINTS
 62
     0
100
AcDbPoint
 10
-1855.03679349514
 20
-3716.736345973461
 30
0.0
  0
POINT
  5
3694
330
3329
100
AcDbEntity
  8
DEFPOINTS
 62
     0
100
AcDbPoint
 10
-1855.03679349514
 20
-3781.927306698454
 30
0.0
  0
ENDBLK
  5
3334
330
3329
100
AcDbEntity
  8
0
100
AcDbBlockEnd
  0
BLOCK
  5
333F
330
3335
100
AcDbEntity
  8
0
100
AcDbBlockBegin
  2
*D39
 70
     1
 10
0.0
 20
0.0
 30
0.0
  3
*D39
  1

  0
LINE
  5
3695
330
3335
100
AcDbEntity
  8
DIM
370
    -2
100
AcDbLine
 10
-1808.871776740151
 20
-3712.736345973463
 30
0.0
 11
-1817.194052639807
 21
-3712.736345973463
 31
0.0
  0
LINE
  5
3696
330
3335
100
AcDbEntity
  8
DIM
370
    -2
100
AcDbLine
 10
-1808.871776740151
 20
-3612.736345973463
 30
0.0
 11
-1817.194052639807
 21
-3612.736345973463
 31
0.0
  0
LINE
  5
3697
330
3335
100
AcDbEntity
  8
DIM
370
    -2
100
AcDbLine
 10
-1815.194052639807
 20
-3707.736345973463
 30
0.0
 11
-1815.194052639807
 21
-3617.736345973463
 31
0.0
  0
SOLID
  5
3698
330
3335
100
AcDbEntity
  8
DIM
100
AcDbTrace
 10
-1816.02738597314
 20
-3707.736345973463
 30
0.0
 11
-1814.360719306474
 21
-3707.736345973463
 31
0.0
 12
-1815.194052639807
 22
-3712.736345973463
 32
0.0
 13
-1815.194052639807
 23
-3712.736345973463
 33
0.0
  0
SOLID
  5
3699
330
3335
100
AcDbEntity
  8
DIM
100
AcDbTrace
 10
-1816.02738597314
 20
-3617.736345973463
 30
0.0
 11
-1814.360719306474
 21
-3617.736345973463
 31
0.0
 12
-1815.194052639807
 22
-3612.736345973463
 32
0.0
 13
-1815.194052639807
 23
-3612.736345973463
 33
0.0
  0
MTEXT
  5
369A
330
3335
100
AcDbEntity
  8
DIM
100
AcDbMText
 10
-1817.944052639807
 20
-3662.736345973463
 30
0.0
 40
3.5
 41
0.0
 71
     5
 72
     1
  1
\A1;D
  7
ESKD
 11
0.0000000000000001
 21
1.0
 31
0.0
 73
     1
 44
1.0
  0
POINT
  5
369B
330
3335
100
AcDbEntity
  8
DEFPOINTS
 62
     0
100
AcDbPoint
 10
-1808.871776740151
 20
-3712.736345973463
 30
0.0
  0
POINT
  5
369C
330
3335
100
AcDbEntity
  8
DEFPOINTS
 62
     0
100
AcDbPoint
 10
-1808.871776740151
 20
-3612.736345973463
 30
0.0
  0
POINT
  5
369D
330
3335
100
AcDbEntity
  8
DEFPOINTS
 62
     0
100
AcDbPoint
 10
-1815.194052639807
 20
-3612.736345973463
 30
0.0
  0
ENDBLK
  5
3340
330
3335
100
AcDbEntity
  8
0
100
AcDbBlockEnd
  0
BLOCK
  5
334B
330
3341
100
AcDbEntity
  8
0
100
AcDbBlockBegin
  2
*D40
 70
     1
 10
0.0
 20
0.0
 30
0.0
  3
*D40
  1

  0
LINE
  5
369E
330
3341
100
AcDbEntity
  8
DIM
370
    -2
100
AcDbLine
 10
-1855.036793495136
 20
-3608.736345973463
 30
0.0
 11
-1855.036793495136
 21
-3578.37763996988
 31
0.0
  0
LINE
  5
369F
330
3341
100
AcDbEntity
  8
DIM
370
    -2
100
AcDbLine
 10
-1802.036793495136
 20
-3612.736345973463
 30
0.0
 11
-1802.036793495136
 21
-3578.37763996988
 31
0.0
  0
LINE
  5
36A0
330
3341
100
AcDbEntity
  8
DIM
370
    -2
100
AcDbLine
 10
-1850.036793495136
 20
-3580.37763996988
 30
0.0
 11
-1807.036793495136
 21
-3580.37763996988
 31
0.0
  0
SOLID
  5
36A1
330
3341
100
AcDbEntity
  8
DIM
100
AcDbTrace
 10
-1850.036793495136
 20
-3579.544306636547
 30
0.0
 11
-1850.036793495136
 21
-3581.210973303214
 31
0.0
 12
-1855.036793495136
 22
-3580.37763996988
 32
0.0
 13
-1855.036793495136
 23
-3580.37763996988
 33
0.0
  0
SOLID
  5
36A2
330
3341
100
AcDbEntity
  8
DIM
100
AcDbTrace
 10
-1807.036793495136
 20
-3579.544306636547
 30
0.0
 11
-1807.036793495136
 21
-3581.210973303214
 31
0.0
 12
-1802.036793495136
 22
-3580.37763996988
 32
0.0
 13
-1802.036793495136
 23
-3580.37763996988
 33
0.0
  0
MTEXT
  5
36A3
330
3341
100
AcDbEntity
  8
DIM
100
AcDbMText
 10
-1828.536793495136
 20
-3577.62763996988
 30
0.0
 40
3.5
 41
0.0
 71
     5
 72
     1
  1
\A1;53max
  7
ESKD
 73
     1
 44
1.0
  0
POINT
  5
36A4
330
3341
100
AcDbEntity
  8
DEFPOINTS
 62
     0
100
AcDbPoint
 10
-1855.036793495136
 20
-3608.736345973463
 30
0.0
  0
POINT
  5
36A5
330
3341
100
AcDbEntity
  8
DEFPOINTS
 62
     0
100
AcDbPoint
 10
-1802.036793495136
 20
-3612.736345973463
 30
0.0
  0
POINT
  5
36A6
330
3341
100
AcDbEntity
  8
DEFPOINTS
 62
     0
100
AcDbPoint
 10
-1802.036793495136
 20
-3580.37763996988
 30
0.0
  0
ENDBLK
  5
334C
330
3341
100
AcDbEntity
  8
0
100
AcDbBlockEnd
  0
BLOCK
  5
3359
330
334D
100
AcDbEntity
  8
0
100
AcDbBlockBegin
  2
*D41
 70
     1
 10
0.0
 20
0.0
 30
0.0
  3
*D41
  1

  0
LINE
  5
36A7
330
334D
100
AcDbEntity
  8
DIM
370
    -2
100
AcDbLine
 10
-1855.036793495136
 20
-3608.736345973463
 30
0.0
 11
-1855.036793495136
 21
-3594.217573181355
 31
0.0
  0
LINE
  5
36A8
330
334D
100
AcDbEntity
  8
DIM
370
    -2
100
AcDbLine
 10
-1849.036793495136
 20
-3608.736345973463
 30
0.0
 11
-1849.036793495136
 21
-3594.217573181355
 31
0.0
  0
LINE
  5
36A9
330
334D
100
AcDbEntity
  8
DIM
370
    -2
100
AcDbLine
 10
-1860.036793495136
 20
-3596.217573181355
 30
0.0
 11
-1865.036793495136
 21
-3596.217573181355
 31
0.0
  0
LINE
  5
36AA
330
334D
100
AcDbEntity
  8
DIM
370
    -2
100
AcDbLine
 10
-1844.036793495136
 20
-3596.217573181355
 30
0.0
 11
-1839.036793495136
 21
-3596.217573181355
 31
0.0
  0
LINE
  5
36AB
330
334D
100
AcDbEntity
  8
DIM
370
    -2
100
AcDbLine
 10
-1855.036793495136
 20
-3596.217573181355
 30
0.0
 11
-1849.036793495136
 21
-3596.217573181355
 31
0.0
  0
SOLID
  5
36AC
330
334D
100
AcDbEntity
  8
DIM
100
AcDbTrace
 10
-1860.036793495136
 20
-3595.384239848022
 30
0.0
 11
-1860.036793495136
 21
-3597.050906514688
 31
0.0
 12
-1855.036793495136
 22
-3596.217573181355
 32
0.0
 13
-1855.036793495136
 23
-3596.217573181355
 33
0.0
  0
SOLID
  5
36AD
330
334D
100
AcDbEntity
  8
DIM
100
AcDbTrace
 10
-1844.036793495136
 20
-3595.384239848022
 30
0.0
 11
-1844.036793495136
 21
-3597.050906514688
 31
0.0
 12
-1849.036793495136
 22
-3596.217573181355
 32
0.0
 13
-1849.036793495136
 23
-3596.217573181355
 33
0.0
  0
MTEXT
  5
36AE
330
334D
100
AcDbEntity
  8
DIM
100
AcDbMText
 10
-1852.036793495136
 20
-3593.467573181355
 30
0.0
 40
3.5
 41
0.0
 71
     5
 72
     1
  1
\A1;h
  7
ESKD
 73
     1
 44
1.0
  0
POINT
  5
36AF
330
334D
100
AcDbEntity
  8
DEFPOINTS
 62
     0
100
AcDbPoint
 10
-1855.036793495136
 20
-3608.736345973463
 30
0.0
  0
POINT
  5
36B0
330
334D
100
AcDbEntity
  8
DEFPOINTS
 62
     0
100
AcDbPoint
 10
-1849.036793495136
 20
-3608.736345973463
 30
0.0
  0
POINT
  5
36B1
330
334D
100
AcDbEntity
  8
DEFPOINTS
 62
     0
100
AcDbPoint
 10
-1849.036793495136
 20
-3596.217573181355
 30
0.0
  0
ENDBLK
  5
335A
330
334D
100
AcDbEntity
  8
0
100
AcDbBlockEnd
  0
BLOCK
  5
3365
330
335B
100
AcDbEntity
  8
0
100
AcDbBlockBegin
  2
*D42
 70
     1
 10
0.0
 20
0.0
 30
0.0
  3
*D42
  1

  0
LINE
  5
36B2
330
335B
100
AcDbEntity
  8
DIM
370
    -2
100
AcDbLine
 10
-2032.423944685176
 20
-3702.736345973463
 30
0.0
 11
-2061.070383657349
 21
-3702.736345973463
 31
0.0
  0
LINE
  5
36B3
330
335B
100
AcDbEntity
  8
DIM
370
    -2
100
AcDbLine
 10
-2032.423944685172
 20
-3622.736345973463
 30
0.0
 11
-2061.070383657349
 21
-3622.736345973463
 31
0.0
  0
LINE
  5
36B4
330
335B
100
AcDbEntity
  8
DIM
370
    -2
100
AcDbLine
 10
-2059.070383657349
 20
-3697.736345973463
 30
0.0
 11
-2059.070383657349
 21
-3627.736345973462
 31
0.0
  0
SOLID
  5
36B5
330
335B
100
AcDbEntity
  8
DIM
100
AcDbTrace
 10
-2059.903716990683
 20
-3697.736345973463
 30
0.0
 11
-2058.237050324016
 21
-3697.736345973463
 31
0.0
 12
-2059.070383657349
 22
-3702.736345973463
 32
0.0
 13
-2059.070383657349
 23
-3702.736345973463
 33
0.0
  0
SOLID
  5
36B6
330
335B
100
AcDbEntity
  8
DIM
100
AcDbTrace
 10
-2059.903716990683
 20
-3627.736345973462
 30
0.0
 11
-2058.237050324016
 21
-3627.736345973462
 31
0.0
 12
-2059.070383657349
 22
-3622.736345973463
 32
0.0
 13
-2059.070383657349
 23
-3622.736345973463
 33
0.0
  0
MTEXT
  5
36B7
330
335B
100
AcDbEntity
  8
DIM
100
AcDbMText
 10
-2061.820383657348
 20
-3662.736345973463
 30
0.0
 40
3.5
 41
0.0
 71
     5
 72
     1
  1
\A1;A
  7
ESKD
 11
0.0000000000000001
 21
1.0
 31
0.0
 73
     1
 44
1.0
  0
POINT
  5
36B8
330
335B
100
AcDbEntity
  8
DEFPOINTS
 62
     0
100
AcDbPoint
 10
-2032.423944685176
 20
-3702.736345973463
 30
0.0
  0
POINT
  5
36B9
330
335B
100
AcDbEntity
  8
DEFPOINTS
 62
     0
100
AcDbPoint
 10
-2032.423944685172
 20
-3622.736345973463
 30
0.0
  0
POINT
  5
36BA
330
335B
100
AcDbEntity
  8
DEFPOINTS
 62
     0
100
AcDbPoint
 10
-2059.070383657349
 20
-3622.736345973463
 30
0.0
  0
ENDBLK
  5
3366
330
335B
100
AcDbEntity
  8
0
100
AcDbBlockEnd
  0
BLOCK
  5
3371
330
3367
100
AcDbEntity
  8
0
100
AcDbBlockBegin
  2
*D43
 70
     1
 10
0.0
 20
0.0
 30
0.0
  3
*D43
  1

  0
LINE
  5
36BB
330
3367
100
AcDbEntity
  8
DIM
370
    -2
100
AcDbLine
 10
-1859.440699775948
 20
-3311.188740623031
 30
0.0
 11
-1859.440699775948
 21
-3290.072717492652
 31
0.0
  0
LINE
  5
36BC
330
3367
100
AcDbEntity
  8
DIM
370
    -2
100
AcDbLine
 10
-1806.440699775947
 20
-3311.188740623031
 30
0.0
 11
-1806.440699775947
 21
-3290.072717492652
 31
0.0
  0
LINE
  5
36BD
330
3367
100
AcDbEntity
  8
DIM
370
    -2
100
AcDbLine
 10
-1854.440699775947
 20
-3292.072717492653
 30
0.0
 11
-1811.440699775948
 21
-3292.072717492653
 31
0.0
  0
SOLID
  5
36BE
330
3367
100
AcDbEntity
  8
DIM
100
AcDbTrace
 10
-1854.440699775947
 20
-3291.239384159319
 30
0.0
 11
-1854.440699775947
 21
-3292.906050825986
 31
0.0
 12
-1859.440699775948
 22
-3292.072717492653
 32
0.0
 13
-1859.440699775948
 23
-3292.072717492653
 33
0.0
  0
SOLID
  5
36BF
330
3367
100
AcDbEntity
  8
DIM
100
AcDbTrace
 10
-1811.440699775948
 20
-3291.239384159319
 30
0.0
 11
-1811.440699775948
 21
-3292.906050825986
 31
0.0
 12
-1806.440699775947
 22
-3292.072717492653
 32
0.0
 13
-1806.440699775947
 23
-3292.072717492653
 33
0.0
  0
MTEXT
  5
36C0
330
3367
100
AcDbEntity
  8
DIM
100
AcDbMText
 10
-1832.940699775948
 20
-3289.322717492652
 30
0.0
 40
3.5
 41
0.0
 71
     5
 72
     1
  1
\A1;53max
  7
ESKD
 73
     1
 44
1.0
  0
POINT
  5
36C1
330
3367
100
AcDbEntity
  8
DEFPOINTS
 62
     0
100
AcDbPoint
 10
-1859.440699775948
 20
-3311.188740623031
 30
0.0
  0
POINT
  5
36C2
330
3367
100
AcDbEntity
  8
DEFPOINTS
 62
     0
100
AcDbPoint
 10
-1806.440699775947
 20
-3311.188740623031
 30
0.0
  0
POINT
  5
36C3
330
3367
100
AcDbEntity
  8
DEFPOINTS
 62
     0
100
AcDbPoint
 10
-1806.440699775947
 20
-3292.072717492653
 30
0.0
  0
ENDBLK
  5
3372
330
3367
100
AcDbEntity
  8
0
100
AcDbBlockEnd
  0
BLOCK
  5
337D
330
3373
100
AcDbEntity
  8
0
100
AcDbBlockBegin
  2
*D44
 70
     1
 10
0.0
 20
0.0
 30
0.0
  3
*D44
  1

  0
LINE
  5
36C4
330
3373
100
AcDbEntity
  8
DIM
370
    -2
100
AcDbLine
 10
-1831.440699775948
 20
-3461.188740623031
 30
0.0
 11
-1779.661186556831
 21
-3461.188740623031
 31
0.0
  0
LINE
  5
36C5
330
3373
100
AcDbEntity
  8
DIM
370
    -2
100
AcDbLine
 10
-1806.440699775951
 20
-3361.188740623031
 30
0.0
 11
-1779.661186556831
 21
-3361.188740623031
 31
0.0
  0
LINE
  5
36C6
330
3373
100
AcDbEntity
  8
DIM
370
    -2
100
AcDbLine
 10
-1781.661186556831
 20
-3456.18874062303
 30
0.0
 11
-1781.661186556831
 21
-3366.188740623031
 31
0.0
  0
SOLID
  5
36C7
330
3373
100
AcDbEntity
  8
DIM
100
AcDbTrace
 10
-1782.494519890164
 20
-3456.18874062303
 30
0.0
 11
-1780.827853223497
 21
-3456.18874062303
 31
0.0
 12
-1781.661186556831
 22
-3461.188740623031
 32
0.0
 13
-1781.661186556831
 23
-3461.188740623031
 33
0.0
  0
SOLID
  5
36C8
330
3373
100
AcDbEntity
  8
DIM
100
AcDbTrace
 10
-1782.494519890164
 20
-3366.188740623031
 30
0.0
 11
-1780.827853223497
 21
-3366.188740623031
 31
0.0
 12
-1781.661186556831
 22
-3361.188740623031
 32
0.0
 13
-1781.661186556831
 23
-3361.188740623031
 33
0.0
  0
MTEXT
  5
36C9
330
3373
100
AcDbEntity
  8
DIM
100
AcDbMText
 10
-1784.41118655683
 20
-3411.188740623031
 30
0.0
 40
3.5
 41
0.0
 71
     5
 72
     1
  1
\A1;H@J1
  7
ESKD
 11
0.0000000000000001
 21
1.0
 31
0.0
 73
     1
 44
1.0
  0
POINT
  5
36CA
330
3373
100
AcDbEntity
  8
DEFPOINTS
 62
     0
100
AcDbPoint
 10
-1831.440699775948
 20
-3461.188740623031
 30
0.0
  0
POINT
  5
36CB
330
3373
100
AcDbEntity
  8
DEFPOINTS
 62
     0
100
AcDbPoint
 10
-1806.440699775951
 20
-3361.188740623031
 30
0.0
  0
POINT
  5
36CC
330
3373
100
AcDbEntity
  8
DEFPOINTS
 62
     0
100
AcDbPoint
 10
-1781.661186556831
 20
-3361.188740623031
 30
0.0
  0
ENDBLK
  5
337E
330
3373
100
AcDbEntity
  8
0
100
AcDbBlockEnd
  0
BLOCK
  5
3389
330
337F
100
AcDbEntity
  8
0
100
AcDbBlockBegin
  2
*D45
 70
     1
 10
0.0
 20
0.0
 30
0.0
  3
*D45
  1

  0
LINE
  5
36CD
330
337F
100
AcDbEntity
  8
DIM
370
    -2
100
AcDbLine
 10
-1859.440699775951
 20
-3411.188740623031
 30
0.0
 11
-1859.440699775951
 21
-3482.102039236972
 31
0.0
  0
LINE
  5
36CE
330
337F
100
AcDbEntity
  8
DIM
370
    -2
100
AcDbLine
 10
-1834.440699775951
 20
-3461.188740623031
 30
0.0
 11
-1834.440699775951
 21
-3482.102039236972
 31
0.0
  0
LINE
  5
36CF
330
337F
100
AcDbEntity
  8
DIM
370
    -2
100
AcDbLine
 10
-1854.440699775951
 20
-3480.102039236972
 30
0.0
 11
-1839.440699775951
 21
-3480.102039236972
 31
0.0
  0
SOLID
  5
36D0
330
337F
100
AcDbEntity
  8
DIM
100
AcDbTrace
 10
-1854.440699775951
 20
-3479.268705903638
 30
0.0
 11
-1854.440699775951
 21
-3480.935372570306
 31
0.0
 12
-1859.440699775951
 22
-3480.102039236972
 32
0.0
 13
-1859.440699775951
 23
-3480.102039236972
 33
0.0
  0
SOLID
  5
36D1
330
337F
100
AcDbEntity
  8
DIM
100
AcDbTrace
 10
-1839.440699775951
 20
-3479.268705903638
 30
0.0
 11
-1839.440699775951
 21
-3480.935372570306
 31
0.0
 12
-1834.440699775951
 22
-3480.102039236972
 32
0.0
 13
-1834.440699775951
 23
-3480.102039236972
 33
0.0
  0
MTEXT
  5
36D2
330
337F
100
AcDbEntity
  8
DIM
100
AcDbMText
 10
-1846.940699775951
 20
-3477.352039236972
 30
0.0
 40
3.5
 41
0.0
 71
     5
 72
     1
  1
\A1;l
  7
ESKD
 73
     1
 44
1.0
  0
POINT
  5
36D3
330
337F
100
AcDbEntity
  8
DEFPOINTS
 62
     0
100
AcDbPoint
 10
-1859.440699775951
 20
-3411.188740623031
 30
0.0
  0
POINT
  5
36D4
330
337F
100
AcDbEntity
  8
DEFPOINTS
 62
     0
100
AcDbPoint
 10
-1834.440699775951
 20
-3461.188740623031
 30
0.0
  0
POINT
  5
36D5
330
337F
100
AcDbEntity
  8
DEFPOINTS
 62
     0
100
AcDbPoint
 10
-1834.440699775951
 20
-3480.102039236972
 30
0.0
  0
ENDBLK
  5
338A
330
337F
100
AcDbEntity
  8
0
100
AcDbBlockEnd
  0
BLOCK
  5
3395
330
338B
100
AcDbEntity
  8
0
100
AcDbBlockBegin
  2
*D46
 70
     1
 10
0.0
 20
0.0
 30
0.0
  3
*D46
  1

  0
LINE
  5
36D6
330
338B
100
AcDbEntity
  8
DIM
370
    -2
100
AcDbLine
 10
-1433.639650345689
 20
-3359.296129971852
 30
0.0
 11
-1433.639650345689
 21
-3440.407552249439
 31
0.0
  0
LINE
  5
36D7
330
338B
100
AcDbEntity
  8
DIM
370
    -2
100
AcDbLine
 10
-1325.63965034569
 20
-3359.296129971852
 30
0.0
 11
-1325.63965034569
 21
-3440.407552249439
 31
0.0
  0
LINE
  5
36D8
330
338B
100
AcDbEntity
  8
DIM
370
    -2
100
AcDbLine
 10
-1428.639650345689
 20
-3438.407552249439
 30
0.0
 11
-1330.63965034569
 21
-3438.407552249439
 31
0.0
  0
SOLID
  5
36D9
330
338B
100
AcDbEntity
  8
DIM
100
AcDbTrace
 10
-1428.639650345689
 20
-3437.574218916105
 30
0.0
 11
-1428.639650345689
 21
-3439.240885582773
 31
0.0
 12
-1433.639650345689
 22
-3438.407552249439
 32
0.0
 13
-1433.639650345689
 23
-3438.407552249439
 33
0.0
  0
SOLID
  5
36DA
330
338B
100
AcDbEntity
  8
DIM
100
AcDbTrace
 10
-1330.63965034569
 20
-3437.574218916105
 30
0.0
 11
-1330.63965034569
 21
-3439.240885582773
 31
0.0
 12
-1325.63965034569
 22
-3438.407552249439
 32
0.0
 13
-1325.63965034569
 23
-3438.407552249439
 33
0.0
  0
MTEXT
  5
36DB
330
338B
100
AcDbEntity
  8
DIM
100
AcDbMText
 10
-1379.63965034569
 20
-3435.657552249439
 30
0.0
 40
3.5
 41
0.0
 71
     5
 72
     1
  1
\A1;В
  7
ESKD
 73
     1
 44
1.0
  0
POINT
  5
36DC
330
338B
100
AcDbEntity
  8
DEFPOINTS
 62
     0
100
AcDbPoint
 10
-1433.639650345689
 20
-3359.296129971852
 30
0.0
  0
POINT
  5
36DD
330
338B
100
AcDbEntity
  8
DEFPOINTS
 62
     0
100
AcDbPoint
 10
-1325.63965034569
 20
-3359.296129971852
 30
0.0
  0
POINT
  5
36DE
330
338B
100
AcDbEntity
  8
DEFPOINTS
 62
     0
100
AcDbPoint
 10
-1325.63965034569
 20
-3438.407552249439
 30
0.0
  0
ENDBLK
  5
3396
330
338B
100
AcDbEntity
  8
0
100
AcDbBlockEnd
  0
BLOCK
  5
33A1
330
3397
100
AcDbEntity
  8
0
100
AcDbBlockBegin
  2
*D47
 70
     1
 10
0.0
 20
0.0
 30
0.0
  3
*D47
  1

  0
LINE
  5
36DF
330
3397
100
AcDbEntity
  8
DIM
370
    -2
100
AcDbLine
 10
-1419.63965034569
 20
-3319.296129971852
 30
0.0
 11
-1419.63965034569
 21
-3284.384575869797
 31
0.0
  0
LINE
  5
36E0
330
3397
100
AcDbEntity
  8
DIM
370
    -2
100
AcDbLine
 10
-1339.639650345689
 20
-3319.296129971855
 30
0.0
 11
-1339.639650345689
 21
-3284.384575869797
 31
0.0
  0
LINE
  5
36E1
330
3397
100
AcDbEntity
  8
DIM
370
    -2
100
AcDbLine
 10
-1414.639650345689
 20
-3286.384575869797
 30
0.0
 11
-1344.63965034569
 21
-3286.384575869797
 31
0.0
  0
SOLID
  5
36E2
330
3397
100
AcDbEntity
  8
DIM
100
AcDbTrace
 10
-1414.639650345689
 20
-3285.551242536464
 30
0.0
 11
-1414.639650345689
 21
-3287.217909203131
 31
0.0
 12
-1419.63965034569
 22
-3286.384575869797
 32
0.0
 13
-1419.63965034569
 23
-3286.384575869797
 33
0.0
  0
SOLID
  5
36E3
330
3397
100
AcDbEntity
  8
DIM
100
AcDbTrace
 10
-1344.63965034569
 20
-3285.551242536464
 30
0.0
 11
-1344.63965034569
 21
-3287.217909203131
 31
0.0
 12
-1339.639650345689
 22
-3286.384575869797
 32
0.0
 13
-1339.639650345689
 23
-3286.384575869797
 33
0.0
  0
MTEXT
  5
36E4
330
3397
100
AcDbEntity
  8
DIM
100
AcDbMText
 10
-1379.63965034569
 20
-3283.634575869797
 30
0.0
 40
3.5
 41
0.0
 71
     5
 72
     1
  1
\A1;А
  7
ESKD
 73
     1
 44
1.0
  0
POINT
  5
36E5
330
3397
100
AcDbEntity
  8
DEFPOINTS
 62
     0
100
AcDbPoint
 10
-1419.63965034569
 20
-3319.296129971852
 30
0.0
  0
POINT
  5
36E6
330
3397
100
AcDbEntity
  8
DEFPOINTS
 62
     0
100
AcDbPoint
 10
-1339.639650345689
 20
-3319.296129971855
 30
0.0
  0
POINT
  5
36E7
330
3397
100
AcDbEntity
  8
DEFPOINTS
 62
     0
100
AcDbPoint
 10
-1339.639650345689
 20
-3286.384575869797
 30
0.0
  0
ENDBLK
  5
33A2
330
3397
100
AcDbEntity
  8
0
100
AcDbBlockEnd
  0
BLOCK
  5
33AD
330
33A3
100
AcDbEntity
  8
0
100
AcDbBlockBegin
  2
*D48
 70
     1
 10
0.0
 20
0.0
 30
0.0
  3
*D48
  1

  0
LINE
  5
36E8
330
33A3
100
AcDbEntity
  8
DIM
370
    -2
100
AcDbLine
 10
-1419.639650345693
 20
-3399.296129971852
 30
0.0
 11
-1448.286089317866
 21
-3399.296129971852
 31
0.0
  0
LINE
  5
36E9
330
33A3
100
AcDbEntity
  8
DIM
370
    -2
100
AcDbLine
 10
-1419.63965034569
 20
-3319.296129971852
 30
0.0
 11
-1448.286089317866
 21
-3319.296129971852
 31
0.0
  0
LINE
  5
36EA
330
33A3
100
AcDbEntity
  8
DIM
370
    -2
100
AcDbLine
 10
-1446.286089317866
 20
-3394.296129971852
 30
0.0
 11
-1446.286089317866
 21
-3324.296129971852
 31
0.0
  0
SOLID
  5
36EB
330
33A3
100
AcDbEntity
  8
DIM
100
AcDbTrace
 10
-1447.1194226512
 20
-3394.296129971852
 30
0.0
 11
-1445.452755984533
 21
-3394.296129971852
 31
0.0
 12
-1446.286089317866
 22
-3399.296129971852
 32
0.0
 13
-1446.286089317866
 23
-3399.296129971852
 33
0.0
  0
SOLID
  5
36EC
330
33A3
100
AcDbEntity
  8
DIM
100
AcDbTrace
 10
-1447.1194226512
 20
-3324.296129971852
 30
0.0
 11
-1445.452755984533
 21
-3324.296129971852
 31
0.0
 12
-1446.286089317866
 22
-3319.296129971852
 32
0.0
 13
-1446.286089317866
 23
-3319.296129971852
 33
0.0
  0
MTEXT
  5
36ED
330
33A3
100
AcDbEntity
  8
DIM
100
AcDbMText
 10
-1449.036089317866
 20
-3359.296129971852
 30
0.0
 40
3.5
 41
0.0
 71
     5
 72
     1
  1
\A1;A
  7
ESKD
 11
0.0000000000000001
 21
1.0
 31
0.0
 73
     1
 44
1.0
  0
POINT
  5
36EE
330
33A3
100
AcDbEntity
  8
DEFPOINTS
 62
     0
100
AcDbPoint
 10
-1419.639650345693
 20
-3399.296129971852
 30
0.0
  0
POINT
  5
36EF
330
33A3
100
AcDbEntity
  8
DEFPOINTS
 62
     0
100
AcDbPoint
 10
-1419.63965034569
 20
-3319.296129971852
 30
0.0
  0
POINT
  5
36F0
330
33A3
100
AcDbEntity
  8
DEFPOINTS
 62
     0
100
AcDbPoint
 10
-1446.286089317866
 20
-3319.296129971852
 30
0.0
  0
ENDBLK
  5
33AE
330
33A3
100
AcDbEntity
  8
0
100
AcDbBlockEnd
  0
BLOCK
  5
33B9
330
33AF
100
AcDbEntity
  8
0
100
AcDbBlockBegin
  2
*D49
 70
     1
 10
0.0
 20
0.0
 30
0.0
  3
*D49
  1

  0
LINE
  5
36F1
330
33AF
100
AcDbEntity
  8
DIM
370
    -2
100
AcDbLine
 10
-1166.610330867886
 20
-3305.296129971852
 30
0.0
 11
-1133.963950905714
 21
-3305.296129971852
 31
0.0
  0
LINE
  5
36F2
330
33AF
100
AcDbEntity
  8
DIM
370
    -2
100
AcDbLine
 10
-1166.610330867883
 20
-3413.29612997185
 30
0.0
 11
-1133.963950905714
 21
-3413.29612997185
 31
0.0
  0
LINE
  5
36F3
330
33AF
100
AcDbEntity
  8
DIM
370
    -2
100
AcDbLine
 10
-1135.963950905714
 20
-3310.296129971852
 30
0.0
 11
-1135.963950905714
 21
-3408.29612997185
 31
0.0
  0
SOLID
  5
36F4
330
33AF
100
AcDbEntity
  8
DIM
100
AcDbTrace
 10
-1136.797284239047
 20
-3310.296129971852
 30
0.0
 11
-1135.130617572381
 21
-3310.296129971852
 31
0.0
 12
-1135.963950905714
 22
-3305.296129971852
 32
0.0
 13
-1135.963950905714
 23
-3305.296129971852
 33
0.0
  0
SOLID
  5
36F5
330
33AF
100
AcDbEntity
  8
DIM
100
AcDbTrace
 10
-1136.797284239047
 20
-3408.29612997185
 30
0.0
 11
-1135.130617572381
 21
-3408.29612997185
 31
0.0
 12
-1135.963950905714
 22
-3413.29612997185
 32
0.0
 13
-1135.963950905714
 23
-3413.29612997185
 33
0.0
  0
MTEXT
  5
36F6
330
33AF
100
AcDbEntity
  8
DIM
100
AcDbMText
 10
-1138.713950905714
 20
-3359.296129971851
 30
0.0
 40
3.5
 41
0.0
 71
     5
 72
     1
  1
\A1;В
  7
ESKD
 11
0.0000000000000001
 21
1.0
 31
0.0
 73
     1
 44
1.0
  0
POINT
  5
36F7
330
33AF
100
AcDbEntity
  8
DEFPOINTS
 62
     0
100
AcDbPoint
 10
-1166.610330867886
 20
-3305.296129971852
 30
0.0
  0
POINT
  5
36F8
330
33AF
100
AcDbEntity
  8
DEFPOINTS
 62
     0
100
AcDbPoint
 10
-1166.610330867883
 20
-3413.29612997185
 30
0.0
  0
POINT
  5
36F9
330
33AF
100
AcDbEntity
  8
DEFPOINTS
 62
     0
100
AcDbPoint
 10
-1135.963950905714
 20
-3413.29612997185
 30
0.0
  0
ENDBLK
  5
33BA
330
33AF
100
AcDbEntity
  8
0
100
AcDbBlockEnd
  0
BLOCK
  5
33C7
330
33BB
100
AcDbEntity
  8
0
100
AcDbBlockBegin
  2
*D50
 70
     1
 10
0.0
 20
0.0
 30
0.0
  3
*D50
  1

  0
LINE
  5
36FA
330
33BB
100
AcDbEntity
  8
DIM
370
    -2
100
AcDbLine
 10
-1166.610330867886
 20
-3305.296129971852
 30
0.0
 11
-1166.610330867886
 21
-3290.777357179744
 31
0.0
  0
LINE
  5
36FB
330
33BB
100
AcDbEntity
  8
DIM
370
    -2
100
AcDbLine
 10
-1172.610330867886
 20
-3305.296129971852
 30
0.0
 11
-1172.610330867886
 21
-3290.777357179744
 31
0.0
  0
LINE
  5
36FC
330
33BB
100
AcDbEntity
  8
DIM
370
    -2
100
AcDbLine
 10
-1161.610330867886
 20
-3292.777357179744
 30
0.0
 11
-1156.610330867886
 21
-3292.777357179744
 31
0.0
  0
LINE
  5
36FD
330
33BB
100
AcDbEntity
  8
DIM
370
    -2
100
AcDbLine
 10
-1177.610330867886
 20
-3292.777357179744
 30
0.0
 11
-1182.610330867886
 21
-3292.777357179744
 31
0.0
  0
LINE
  5
36FE
330
33BB
100
AcDbEntity
  8
DIM
370
    -2
100
AcDbLine
 10
-1166.610330867886
 20
-3292.777357179744
 30
0.0
 11
-1172.610330867886
 21
-3292.777357179744
 31
0.0
  0
SOLID
  5
36FF
330
33BB
100
AcDbEntity
  8
DIM
100
AcDbTrace
 10
-1161.610330867886
 20
-3291.944023846411
 30
0.0
 11
-1161.610330867886
 21
-3293.610690513078
 31
0.0
 12
-1166.610330867886
 22
-3292.777357179744
 32
0.0
 13
-1166.610330867886
 23
-3292.777357179744
 33
0.0
  0
SOLID
  5
3700
330
33BB
100
AcDbEntity
  8
DIM
100
AcDbTrace
 10
-1177.610330867886
 20
-3291.944023846411
 30
0.0
 11
-1177.610330867886
 21
-3293.610690513078
 31
0.0
 12
-1172.610330867886
 22
-3292.777357179744
 32
0.0
 13
-1172.610330867886
 23
-3292.777357179744
 33
0.0
  0
MTEXT
  5
3701
330
33BB
100
AcDbEntity
  8
DIM
100
AcDbMText
 10
-1169.610330867886
 20
-3290.027357179744
 30
0.0
 40
3.5
 41
0.0
 71
     5
 72
     1
  1
\A1;h
  7
ESKD
 73
     1
 44
1.0
  0
POINT
  5
3702
330
33BB
100
AcDbEntity
  8
DEFPOINTS
 62
     0
100
AcDbPoint
 10
-1166.610330867886
 20
-3305.296129971852
 30
0.0
  0
POINT
  5
3703
330
33BB
100
AcDbEntity
  8
DEFPOINTS
 62
     0
100
AcDbPoint
 10
-1172.610330867886
 20
-3305.296129971852
 30
0.0
  0
POINT
  5
3704
330
33BB
100
AcDbEntity
  8
DEFPOINTS
 62
     0
100
AcDbPoint
 10
-1172.610330867886
 20
-3292.777357179744
 30
0.0
  0
ENDBLK
  5
33C8
330
33BB
100
AcDbEntity
  8
0
100
AcDbBlockEnd
  0
BLOCK
  5
33D3
330
33C9
100
AcDbEntity
  8
0
100
AcDbBlockBegin
  2
*D51
 70
     1
 10
0.0
 20
0.0
 30
0.0
  3
*D51
  1

  0
LINE
  5
3705
330
33C9
100
AcDbEntity
  8
DIM
370
    -2
100
AcDbLine
 10
-1163.610330867883
 20
-3409.29612997185
 30
0.0
 11
-1148.435821646305
 21
-3409.29612997185
 31
0.0
  0
LINE
  5
3706
330
33C9
100
AcDbEntity
  8
DIM
370
    -2
100
AcDbLine
 10
-1163.610330867886
 20
-3309.29612997185
 30
0.0
 11
-1148.435821646305
 21
-3309.29612997185
 31
0.0
  0
LINE
  5
3707
330
33C9
100
AcDbEntity
  8
DIM
370
    -2
100
AcDbLine
 10
-1150.435821646305
 20
-3404.29612997185
 30
0.0
 11
-1150.435821646305
 21
-3314.29612997185
 31
0.0
  0
SOLID
  5
3708
330
33C9
100
AcDbEntity
  8
DIM
100
AcDbTrace
 10
-1151.269154979638
 20
-3404.29612997185
 30
0.0
 11
-1149.602488312972
 21
-3404.29612997185
 31
0.0
 12
-1150.435821646305
 22
-3409.29612997185
 32
0.0
 13
-1150.435821646305
 23
-3409.29612997185
 33
0.0
  0
SOLID
  5
3709
330
33C9
100
AcDbEntity
  8
DIM
100
AcDbTrace
 10
-1151.269154979638
 20
-3314.29612997185
 30
0.0
 11
-1149.602488312972
 21
-3314.29612997185
 31
0.0
 12
-1150.435821646305
 22
-3309.29612997185
 32
0.0
 13
-1150.435821646305
 23
-3309.29612997185
 33
0.0
  0
MTEXT
  5
370A
330
33C9
100
AcDbEntity
  8
DIM
100
AcDbMText
 10
-1152.185821646305
 20
-3359.296129971851
 30
0.0
 40
3.5
 41
0.0
 71
     5
 72
     1
  1
\A1;D
  7
ESKD
 11
0.0000000000000001
 21
1.0
 31
0.0
 73
     1
 44
1.0
  0
POINT
  5
370B
330
33C9
100
AcDbEntity
  8
DEFPOINTS
 62
     0
100
AcDbPoint
 10
-1163.610330867883
 20
-3409.29612997185
 30
0.0
  0
POINT
  5
370C
330
33C9
100
AcDbEntity
  8
DEFPOINTS
 62
     0
100
AcDbPoint
 10
-1163.610330867886
 20
-3309.29612997185
 30
0.0
  0
POINT
  5
370D
330
33C9
100
AcDbEntity
  8
DEFPOINTS
 62
     0
100
AcDbPoint
 10
-1150.435821646305
 20
-3309.29612997185
 30
0.0
  0
ENDBLK
  5
33D4
330
33C9
100
AcDbEntity
  8
0
100
AcDbBlockEnd
  0
BLOCK
  5
33DF
330
33D5
100
AcDbEntity
  8
0
100
AcDbBlockBegin
  2
*D52
 70
     1
 10
0.0
 20
0.0
 30
0.0
  3
*D52
  1

  0
LINE
  5
370E
330
33D5
100
AcDbEntity
  8
DIM
370
    -2
100
AcDbLine
 10
-1220.610330867883
 20
-3394.296129971852
 30
0.0
 11
-1199.346026266849
 21
-3394.296129971852
 31
0.0
  0
LINE
  5
370F
330
33D5
100
AcDbEntity
  8
DIM
370
    -2
100
AcDbLine
 10
-1220.610330867883
 20
-3359.296129971852
 30
0.0
 11
-1199.346026266849
 21
-3359.296129971852
 31
0.0
  0
LINE
  5
3710
330
33D5
100
AcDbEntity
  8
DIM
370
    -2
100
AcDbLine
 10
-1201.346026266849
 20
-3389.296129971852
 30
0.0
 11
-1201.346026266849
 21
-3364.296129971852
 31
0.0
  0
SOLID
  5
3711
330
33D5
100
AcDbEntity
  8
DIM
100
AcDbTrace
 10
-1202.179359600182
 20
-3389.296129971852
 30
0.0
 11
-1200.512692933516
 21
-3389.296129971852
 31
0.0
 12
-1201.346026266849
 22
-3394.296129971852
 32
0.0
 13
-1201.346026266849
 23
-3394.296129971852
 33
0.0
  0
SOLID
  5
3712
330
33D5
100
AcDbEntity
  8
DIM
100
AcDbTrace
 10
-1202.179359600182
 20
-3364.296129971852
 30
0.0
 11
-1200.512692933516
 21
-3364.296129971852
 31
0.0
 12
-1201.346026266849
 22
-3359.296129971852
 32
0.0
 13
-1201.346026266849
 23
-3359.296129971852
 33
0.0
  0
MTEXT
  5
3713
330
33D5
100
AcDbEntity
  8
DIM
100
AcDbMText
 10
-1203.096026266849
 20
-3376.796129971852
 30
0.0
 40
3.5
 41
0.0
 71
     5
 72
     1
  1
\A1;l
  7
ESKD
 11
0.0000000000000001
 21
1.0
 31
0.0
 73
     1
 44
1.0
  0
POINT
  5
3714
330
33D5
100
AcDbEntity
  8
DEFPOINTS
 62
     0
100
AcDbPoint
 10
-1220.610330867883
 20
-3394.296129971852
 30
0.0
  0
POINT
  5
3715
330
33D5
100
AcDbEntity
  8
DEFPOINTS
 62
     0
100
AcDbPoint
 10
-1220.610330867883
 20
-3359.296129971852
 30
0.0
  0
POINT
  5
3716
330
33D5
100
AcDbEntity
  8
DEFPOINTS
 62
     0
100
AcDbPoint
 10
-1201.346026266849
 20
-3359.296129971852
 30
0.0
  0
ENDBLK
  5
33E0
330
33D5
100
AcDbEntity
  8
0
100
AcDbBlockEnd
  0
BLOCK
  5
33EB
330
33E1
100
AcDbEntity
  8
0
100
AcDbBlockBegin
  2
*D53
 70
     1
 10
0.0
 20
0.0
 30
0.0
  3
*D53
  1

  0
LINE
  5
3717
330
33E1
100
AcDbEntity
  8
DIM
370
    -2
100
AcDbLine
 10
-1097.003697538502
 20
-3725.313391718566
 30
0.0
 11
-1097.003697538502
 21
-3704.096181082219
 31
0.0
  0
LINE
  5
3718
330
33E1
100
AcDbEntity
  8
DIM
370
    -2
100
AcDbLine
 10
-1044.003697538501
 20
-3725.313391718566
 30
0.0
 11
-1044.003697538501
 21
-3704.096181082219
 31
0.0
  0
LINE
  5
3719
330
33E1
100
AcDbEntity
  8
DIM
370
    -2
100
AcDbLine
 10
-1092.003697538501
 20
-3706.096181082219
 30
0.0
 11
-1049.003697538501
 21
-3706.096181082219
 31
0.0
  0
SOLID
  5
371A
330
33E1
100
AcDbEntity
  8
DIM
100
AcDbTrace
 10
-1092.003697538501
 20
-3705.262847748886
 30
0.0
 11
-1092.003697538501
 21
-3706.929514415552
 31
0.0
 12
-1097.003697538502
 22
-3706.096181082219
 32
0.0
 13
-1097.003697538502
 23
-3706.096181082219
 33
0.0
  0
SOLID
  5
371B
330
33E1
100
AcDbEntity
  8
DIM
100
AcDbTrace
 10
-1049.003697538501
 20
-3705.262847748886
 30
0.0
 11
-1049.003697538501
 21
-3706.929514415552
 31
0.0
 12
-1044.003697538501
 22
-3706.096181082219
 32
0.0
 13
-1044.003697538501
 23
-3706.096181082219
 33
0.0
  0
MTEXT
  5
371C
330
33E1
100
AcDbEntity
  8
DIM
100
AcDbMText
 10
-1070.503697538502
 20
-3704.34618108222
 30
0.0
 40
3.5
 41
0.0
 71
     5
 72
     1
  1
\A1;53max
  7
ESKD
 73
     1
 44
1.0
  0
POINT
  5
371D
330
33E1
100
AcDbEntity
  8
DEFPOINTS
 62
     0
100
AcDbPoint
 10
-1097.003697538502
 20
-3725.313391718566
 30
0.0
  0
POINT
  5
371E
330
33E1
100
AcDbEntity
  8
DEFPOINTS
 62
     0
100
AcDbPoint
 10
-1044.003697538501
 20
-3725.313391718566
 30
0.0
  0
POINT
  5
371F
330
33E1
100
AcDbEntity
  8
DEFPOINTS
 62
     0
100
AcDbPoint
 10
-1044.003697538501
 20
-3706.096181082219
 30
0.0
  0
ENDBLK
  5
33EC
330
33E1
100
AcDbEntity
  8
0
100
AcDbBlockEnd
  0
BLOCK
  5
33F7
330
33ED
100
AcDbEntity
  8
0
100
AcDbBlockBegin
  2
*D54
 70
     1
 10
0.0
 20
0.0
 30
0.0
  3
*D54
  1

  0
LINE
  5
3720
330
33ED
100
AcDbEntity
  8
DIM
370
    -2
100
AcDbLine
 10
-1267.610330867886
 20
-3397.296129971856
 30
0.0
 11
-1267.610330867886
 21
-3438.038884206229
 31
0.0
  0
LINE
  5
3721
330
33ED
100
AcDbEntity
  8
DIM
370
    -2
100
AcDbLine
 10
-1163.610330867883
 20
-3409.29612997185
 30
0.0
 11
-1163.610330867883
 21
-3438.038884206229
 31
0.0
  0
LINE
  5
3722
330
33ED
100
AcDbEntity
  8
DIM
370
    -2
100
AcDbLine
 10
-1262.610330867886
 20
-3436.038884206229
 30
0.0
 11
-1168.610330867883
 21
-3436.038884206229
 31
0.0
  0
SOLID
  5
3723
330
33ED
100
AcDbEntity
  8
DIM
100
AcDbTrace
 10
-1262.610330867886
 20
-3435.205550872896
 30
0.0
 11
-1262.610330867886
 21
-3436.872217539562
 31
0.0
 12
-1267.610330867886
 22
-3436.038884206229
 32
0.0
 13
-1267.610330867886
 23
-3436.038884206229
 33
0.0
  0
SOLID
  5
3724
330
33ED
100
AcDbEntity
  8
DIM
100
AcDbTrace
 10
-1168.610330867883
 20
-3435.205550872896
 30
0.0
 11
-1168.610330867883
 21
-3436.872217539562
 31
0.0
 12
-1163.610330867883
 22
-3436.038884206229
 32
0.0
 13
-1163.610330867883
 23
-3436.038884206229
 33
0.0
  0
MTEXT
  5
3725
330
33ED
100
AcDbEntity
  8
DIM
100
AcDbMText
 10
-1215.610330867884
 20
-3434.288884206229
 30
0.0
 40
3.5
 41
0.0
 71
     5
 72
     1
  1
\A1;H@J1
  7
ESKD
 73
     1
 44
1.0
  0
POINT
  5
3726
330
33ED
100
AcDbEntity
  8
DEFPOINTS
 62
     0
100
AcDbPoint
 10
-1267.610330867886
 20
-3397.296129971856
 30
0.0
  0
POINT
  5
3727
330
33ED
100
AcDbEntity
  8
DEFPOINTS
 62
     0
100
AcDbPoint
 10
-1163.610330867883
 20
-3409.29612997185
 30
0.0
  0
POINT
  5
3728
330
33ED
100
AcDbEntity
  8
DEFPOINTS
 62
     0
100
AcDbPoint
 10
-1163.610330867883
 20
-3436.038884206229
 30
0.0
  0
ENDBLK
  5
33F8
330
33ED
100
AcDbEntity
  8
0
100
AcDbBlockEnd
  0
BLOCK
  5
3403
330
33F9
100
AcDbEntity
  8
0
100
AcDbBlockBegin
  2
*D55
 70
     1
 10
0.0
 20
0.0
 30
0.0
  3
*D55
  1

  0
LINE
  5
3729
330
33F9
100
AcDbEntity
  8
DIM
370
    -2
100
AcDbLine
 10
-1144.003697538507
 20
-3813.313391718569
 30
0.0
 11
-1144.003697538507
 21
-3847.408226143764
 31
0.0
  0
LINE
  5
372A
330
33F9
100
AcDbEntity
  8
DIM
370
    -2
100
AcDbLine
 10
-1044.003697538505
 20
-3825.313391718566
 30
0.0
 11
-1044.003697538505
 21
-3847.408226143764
 31
0.0
  0
LINE
  5
372B
330
33F9
100
AcDbEntity
  8
DIM
370
    -2
100
AcDbLine
 10
-1139.003697538506
 20
-3845.408226143764
 30
0.0
 11
-1049.003697538505
 21
-3845.408226143764
 31
0.0
  0
SOLID
  5
372C
330
33F9
100
AcDbEntity
  8
DIM
100
AcDbTrace
 10
-1139.003697538506
 20
-3844.57489281043
 30
0.0
 11
-1139.003697538506
 21
-3846.241559477097
 31
0.0
 12
-1144.003697538507
 22
-3845.408226143764
 32
0.0
 13
-1144.003697538507
 23
-3845.408226143764
 33
0.0
  0
SOLID
  5
372D
330
33F9
100
AcDbEntity
  8
DIM
100
AcDbTrace
 10
-1049.003697538505
 20
-3844.57489281043
 30
0.0
 11
-1049.003697538505
 21
-3846.241559477097
 31
0.0
 12
-1044.003697538505
 22
-3845.408226143764
 32
0.0
 13
-1044.003697538505
 23
-3845.408226143764
 33
0.0
  0
MTEXT
  5
372E
330
33F9
100
AcDbEntity
  8
DIM
100
AcDbMText
 10
-1094.003697538506
 20
-3843.658226143764
 30
0.0
 40
3.5
 41
0.0
 71
     5
 72
     1
  1
\A1;H@J1
  7
ESKD
 73
     1
 44
1.0
  0
POINT
  5
372F
330
33F9
100
AcDbEntity
  8
DEFPOINTS
 62
     0
100
AcDbPoint
 10
-1144.003697538507
 20
-3813.313391718569
 30
0.0
  0
POINT
  5
3730
330
33F9
100
AcDbEntity
  8
DEFPOINTS
 62
     0
100
AcDbPoint
 10
-1044.003697538505
 20
-3825.313391718566
 30
0.0
  0
POINT
  5
3731
330
33F9
100
AcDbEntity
  8
DEFPOINTS
 62
     0
100
AcDbPoint
 10
-1044.003697538505
 20
-3845.408226143764
 30
0.0
  0
ENDBLK
  5
3404
330
33F9
100
AcDbEntity
  8
0
100
AcDbBlockEnd
  0
BLOCK
  5
340F
330
3405
100
AcDbEntity
  8
0
100
AcDbBlockBegin
  2
*D56
 70
     1
 10
0.0
 20
0.0
 30
0.0
  3
*D56
  1

  0
LINE
  5
3732
330
3405
100
AcDbEntity
  8
DIM
370
    -2
100
AcDbLine
 10
-1097.003697538505
 20
-3810.313391718566
 30
0.0
 11
-1071.714863250491
 21
-3810.313391718566
 31
0.0
  0
LINE
  5
3733
330
3405
100
AcDbEntity
  8
DIM
370
    -2
100
AcDbLine
 10
-1061.681153476816
 20
-3775.313391718566
 30
0.0
 11
-1075.714863250492
 21
-3775.313391718566
 31
0.0
  0
LINE
  5
3734
330
3405
100
AcDbEntity
  8
DIM
370
    -2
100
AcDbLine
 10
-1073.714863250491
 20
-3805.313391718566
 30
0.0
 11
-1073.714863250491
 21
-3780.313391718566
 31
0.0
  0
SOLID
  5
3735
330
3405
100
AcDbEntity
  8
DIM
100
AcDbTrace
 10
-1074.548196583825
 20
-3805.313391718566
 30
0.0
 11
-1072.881529917158
 21
-3805.313391718566
 31
0.0
 12
-1073.714863250491
 22
-3810.313391718566
 32
0.0
 13
-1073.714863250491
 23
-3810.313391718566
 33
0.0
  0
SOLID
  5
3736
330
3405
100
AcDbEntity
  8
DIM
100
AcDbTrace
 10
-1074.548196583825
 20
-3780.313391718566
 30
0.0
 11
-1072.881529917158
 21
-3780.313391718566
 31
0.0
 12
-1073.714863250491
 22
-3775.313391718566
 32
0.0
 13
-1073.714863250491
 23
-3775.313391718566
 33
0.0
  0
MTEXT
  5
3737
330
3405
100
AcDbEntity
  8
DIM
100
AcDbMText
 10
-1075.464863250491
 20
-3792.813391718567
 30
0.0
 40
3.5
 41
0.0
 71
     5
 72
     1
  1
\A1;l
  7
ESKD
 11
0.0000000000000001
 21
1.0
 31
0.0
 73
     1
 44
1.0
  0
POINT
  5
3738
330
3405
100
AcDbEntity
  8
DEFPOINTS
 62
     0
100
AcDbPoint
 10
-1097.003697538505
 20
-3810.313391718566
 30
0.0
  0
POINT
  5
3739
330
3405
100
AcDbEntity
  8
DEFPOINTS
 62
     0
100
AcDbPoint
 10
-1061.681153476816
 20
-3775.313391718566
 30
0.0
  0
POINT
  5
373A
330
3405
100
AcDbEntity
  8
DEFPOINTS
 62
     0
100
AcDbPoint
 10
-1073.714863250491
 20
-3775.313391718566
 30
0.0
  0
ENDBLK
  5
3410
330
3405
100
AcDbEntity
  8
0
100
AcDbBlockEnd
  0
BLOCK
  5
341B
330
3411
100
AcDbEntity
  8
0
100
AcDbBlockBegin
  2
*D57
 70
     1
 10
0.0
 20
0.0
 30
0.0
  3
*D57
  1

  0
LINE
  5
373B
330
3411
100
AcDbEntity
  8
DIM
370
    -2
100
AcDbLine
 10
-1220.610330867886
 20
-3309.296129971852
 30
0.0
 11
-1220.610330867886
 21
-3280.253951104962
 31
0.0
  0
LINE
  5
373C
330
3411
100
AcDbEntity
  8
DIM
370
    -2
100
AcDbLine
 10
-1163.610330867886
 20
-3309.29612997185
 30
0.0
 11
-1163.610330867886
 21
-3280.253951104962
 31
0.0
  0
LINE
  5
373D
330
3411
100
AcDbEntity
  8
DIM
370
    -2
100
AcDbLine
 10
-1215.610330867886
 20
-3282.253951104962
 30
0.0
 11
-1168.610330867886
 21
-3282.253951104962
 31
0.0
  0
SOLID
  5
373E
330
3411
100
AcDbEntity
  8
DIM
100
AcDbTrace
 10
-1215.610330867886
 20
-3281.420617771629
 30
0.0
 11
-1215.610330867886
 21
-3283.087284438295
 31
0.0
 12
-1220.610330867886
 22
-3282.253951104962
 32
0.0
 13
-1220.610330867886
 23
-3282.253951104962
 33
0.0
  0
SOLID
  5
373F
330
3411
100
AcDbEntity
  8
DIM
100
AcDbTrace
 10
-1168.610330867886
 20
-3281.420617771629
 30
0.0
 11
-1168.610330867886
 21
-3283.087284438295
 31
0.0
 12
-1163.610330867886
 22
-3282.253951104962
 32
0.0
 13
-1163.610330867886
 23
-3282.253951104962
 33
0.0
  0
MTEXT
  5
3740
330
3411
100
AcDbEntity
  8
DIM
100
AcDbMText
 10
-1192.110330867886
 20
-3280.503951104962
 30
0.0
 40
3.5
 41
0.0
 71
     5
 72
     1
  1
\A1;57max
  7
ESKD
 73
     1
 44
1.0
  0
POINT
  5
3741
330
3411
100
AcDbEntity
  8
DEFPOINTS
 62
     0
100
AcDbPoint
 10
-1220.610330867886
 20
-3309.296129971852
 30
0.0
  0
POINT
  5
3742
330
3411
100
AcDbEntity
  8
DEFPOINTS
 62
     0
100
AcDbPoint
 10
-1163.610330867886
 20
-3309.29612997185
 30
0.0
  0
POINT
  5
3743
330
3411
100
AcDbEntity
  8
DEFPOINTS
 62
     0
100
AcDbPoint
 10
-1163.610330867886
 20
-3282.253951104962
 30
0.0
  0
ENDBLK
  5
341C
330
3411
100
AcDbEntity
  8
0
100
AcDbBlockEnd
  0
BLOCK
  5
3429
330
341D
100
AcDbEntity
  8
0
100
AcDbBlockBegin
  2
*D58
 70
     1
 10
0.0
 20
0.0
 30
0.0
  3
*D58
  1

  0
LINE
  5
3744
330
341D
100
AcDbEntity
  8
DIM
370
    -2
100
AcDbLine
 10
-1166.610330867883
 20
-3409.29612997185
 30
0.0
 11
-1166.610330867883
 21
-3424.663714130764
 31
0.0
  0
LINE
  5
3745
330
341D
100
AcDbEntity
  8
DIM
370
    -2
100
AcDbLine
 10
-1163.610330867883
 20
-3409.29612997185
 30
0.0
 11
-1163.610330867883
 21
-3424.663714130764
 31
0.0
  0
LINE
  5
3746
330
341D
100
AcDbEntity
  8
DIM
370
    -2
100
AcDbLine
 10
-1171.610330867883
 20
-3422.663714130763
 30
0.0
 11
-1176.610330867883
 21
-3422.663714130763
 31
0.0
  0
LINE
  5
3747
330
341D
100
AcDbEntity
  8
DIM
370
    -2
100
AcDbLine
 10
-1158.610330867883
 20
-3422.663714130763
 30
0.0
 11
-1153.610330867883
 21
-3422.663714130763
 31
0.0
  0
MTEXT
  5
3748
330
341D
100
AcDbEntity
  8
DIM
100
AcDbMText
 10
-1165.110330867883
 20
-3429.913714130763
 30
0.0
 40
3.5
 41
0.0
 71
     5
 72
     1
  1
\A1;3%%P0.5
  7
ESKD
 73
     1
 44
1.0
  0
LINE
  5
3749
330
341D
100
AcDbEntity
  8
DIM
370
    -2
100
AcDbLine
 10
-1166.610330867883
 20
-3422.663714130763
 30
0.0
 11
-1163.610330867883
 21
-3422.663714130763
 31
0.0
  0
SOLID
  5
374A
330
341D
100
AcDbEntity
  8
DIM
100
AcDbTrace
 10
-1171.610330867883
 20
-3421.83038079743
 30
0.0
 11
-1171.610330867883
 21
-3423.497047464097
 31
0.0
 12
-1166.610330867883
 22
-3422.663714130763
 32
0.0
 13
-1166.610330867883
 23
-3422.663714130763
 33
0.0
  0
SOLID
  5
374B
330
341D
100
AcDbEntity
  8
DIM
100
AcDbTrace
 10
-1158.610330867883
 20
-3421.83038079743
 30
0.0
 11
-1158.610330867883
 21
-3423.497047464097
 31
0.0
 12
-1163.610330867883
 22
-3422.663714130763
 32
0.0
 13
-1163.610330867883
 23
-3422.663714130763
 33
0.0
  0
POINT
  5
374C
330
341D
100
AcDbEntity
  8
DEFPOINTS
 62
     0
100
AcDbPoint
 10
-1166.610330867883
 20
-3409.29612997185
 30
0.0
  0
POINT
  5
374D
330
341D
100
AcDbEntity
  8
DEFPOINTS
 62
     0
100
AcDbPoint
 10
-1163.610330867883
 20
-3409.29612997185
 30
0.0
  0
POINT
  5
374E
330
341D
100
AcDbEntity
  8
DEFPOINTS
 62
     0
100
AcDbPoint
 10
-1163.610330867883
 20
-3422.663714130763
 30
0.0
  0
ENDBLK
  5
342A
330
341D
100
AcDbEntity
  8
0
100
AcDbBlockEnd
  0
BLOCK
  5
3437
330
342B
100
AcDbEntity
  8
0
100
AcDbBlockBegin
  2
*D59
 70
     1
 10
0.0
 20
0.0
 30
0.0
  3
*D59
  1

  0
LINE
  5
374F
330
342B
100
AcDbEntity
  8
DIM
370
    -2
100
AcDbLine
 10
-2100.761106439365
 20
-3348.414353716749
 30
0.0
 11
-2112.928942569659
 21
-3348.414353716749
 31
0.0
  0
LINE
  5
3750
330
342B
100
AcDbEntity
  8
DIM
370
    -2
100
AcDbLine
 10
-2094.761106439361
 20
-3353.41435371675
 30
0.0
 11
-2112.928942569659
 21
-3353.41435371675
 31
0.0
  0
LINE
  5
3751
330
342B
100
AcDbEntity
  8
DIM
370
    -2
100
AcDbLine
 10
-2110.928942569659
 20
-3343.414353716749
 30
0.0
 11
-2110.928942569659
 21
-3338.41435371675
 31
0.0
  0
LINE
  5
3752
330
342B
100
AcDbEntity
  8
DIM
370
    -2
100
AcDbLine
 10
-2110.928942569659
 20
-3358.414353716749
 30
0.0
 11
-2110.928942569659
 21
-3363.41435371675
 31
0.0
  0
MTEXT
  5
3753
330
342B
100
AcDbEntity
  8
DIM
100
AcDbMText
 10
-2115.928942569658
 20
-3350.91435371675
 30
0.0
 40
3.5
 41
0.0
 71
     5
 72
     1
  1
\A1;h@J1
  7
ESKD
 11
0.0000000000000001
 21
1.0
 31
0.0
 73
     1
 44
1.0
  0
LINE
  5
3754
330
342B
100
AcDbEntity
  8
DIM
370
    -2
100
AcDbLine
 10
-2110.928942569659
 20
-3348.414353716749
 30
0.0
 11
-2110.928942569659
 21
-3353.41435371675
 31
0.0
  0
SOLID
  5
3755
330
342B
100
AcDbEntity
  8
DIM
100
AcDbTrace
 10
-2111.762275902993
 20
-3343.414353716749
 30
0.0
 11
-2110.095609236326
 21
-3343.414353716749
 31
0.0
 12
-2110.928942569659
 22
-3348.414353716749
 32
0.0
 13
-2110.928942569659
 23
-3348.414353716749
 33
0.0
  0
SOLID
  5
3756
330
342B
100
AcDbEntity
  8
DIM
100
AcDbTrace
 10
-2111.762275902993
 20
-3358.414353716749
 30
0.0
 11
-2110.095609236326
 21
-3358.414353716749
 31
0.0
 12
-2110.928942569659
 22
-3353.41435371675
 32
0.0
 13
-2110.928942569659
 23
-3353.41435371675
 33
0.0
  0
POINT
  5
3757
330
342B
100
AcDbEntity
  8
DEFPOINTS
 62
     0
100
AcDbPoint
 10
-2100.761106439365
 20
-3348.414353716749
 30
0.0
  0
POINT
  5
3758
330
342B
100
AcDbEntity
  8
DEFPOINTS
 62
     0
100
AcDbPoint
 10
-2094.761106439361
 20
-3353.41435371675
 30
0.0
  0
POINT
  5
3759
330
342B
100
AcDbEntity
  8
DEFPOINTS
 62
     0
100
AcDbPoint
 10
-2110.928942569659
 20
-3353.41435371675
 30
0.0
  0
ENDBLK
  5
3438
330
342B
100
AcDbEntity
  8
0
100
AcDbBlockEnd
  0
BLOCK
  5
344F
330
3445
100
AcDbEntity
  8
0
100
AcDbBlockBegin
  2
*D60
 70
     1
 10
0.0
 20
0.0
 30
0.0
  3
*D60
  1

  0
LINE
  5
3763
330
3445
100
AcDbEntity
  8
DIM
370
    -2
100
AcDbLine
 10
1002.661951576962
 20
-3977.957870782097
 30
0.0
 11
1073.53364543285
 21
-3977.957870782097
 31
0.0
  0
LINE
  5
3764
330
3445
100
AcDbEntity
  8
DIM
370
    -2
100
AcDbLine
 10
1040.661951576963
 20
-3957.957870782097
 30
0.0
 11
1073.53364543285
 21
-3957.957870782097
 31
0.0
  0
LINE
  5
3765
330
3445
100
AcDbEntity
  8
DIM
370
    -2
100
AcDbLine
 10
1071.53364543285
 20
-3972.957870782097
 30
0.0
 11
1071.53364543285
 21
-3962.957870782097
 31
0.0
  0
SOLID
  5
3766
330
3445
100
AcDbEntity
  8
DIM
100
AcDbTrace
 10
1070.700312099516
 20
-3972.957870782097
 30
0.0
 11
1072.366978766183
 21
-3972.957870782097
 31
0.0
 12
1071.53364543285
 22
-3977.957870782097
 32
0.0
 13
1071.53364543285
 23
-3977.957870782097
 33
0.0
  0
SOLID
  5
3767
330
3445
100
AcDbEntity
  8
DIM
100
AcDbTrace
 10
1070.700312099516
 20
-3962.957870782097
 30
0.0
 11
1072.366978766183
 21
-3962.957870782097
 31
0.0
 12
1071.53364543285
 22
-3957.957870782097
 32
0.0
 13
1071.53364543285
 23
-3957.957870782097
 33
0.0
  0
MTEXT
  5
3768
330
3445
100
AcDbEntity
  8
DIM
100
AcDbMText
 10
1069.78364543285
 20
-3967.957870782097
 30
0.0
 40
3.5
 41
0.0
 71
     5
 72
     1
  1
\A1;20
  7
ESKD
 11
0.0000000000000001
 21
1.0
 31
0.0
 73
     1
 44
1.0
  0
POINT
  5
3769
330
3445
100
AcDbEntity
  8
DEFPOINTS
 62
     0
100
AcDbPoint
 10
1002.661951576962
 20
-3977.957870782097
 30
0.0
  0
POINT
  5
376A
330
3445
100
AcDbEntity
  8
DEFPOINTS
 62
     0
100
AcDbPoint
 10
1040.661951576963
 20
-3957.957870782097
 30
0.0
  0
POINT
  5
376B
330
3445
100
AcDbEntity
  8
DEFPOINTS
 62
     0
100
AcDbPoint
 10
1071.53364543285
 20
-3957.957870782097
 30
0.0
  0
ENDBLK
  5
3450
330
3445
100
AcDbEntity
  8
0
100
AcDbBlockEnd
  0
BLOCK
  5
3475
330
3469
100
AcDbEntity
  8
0
100
AcDbBlockBegin
  2
*D61
 70
     1
 10
0.0
 20
0.0
 30
0.0
  3
*D61
  1

  0
LINE
  5
377E
330
3469
100
AcDbEntity
  8
DIM
370
    -2
100
AcDbLine
 10
971.6619515769634
 20
-4072.957870782096
 30
0.0
 11
952.728321204041
 21
-4072.957870782096
 31
0.0
  0
LINE
  5
377F
330
3469
100
AcDbEntity
  8
DIM
370
    -2
100
AcDbLine
 10
965.6619515769598
 20
-4067.957870782096
 30
0.0
 11
952.728321204041
 21
-4067.957870782096
 31
0.0
  0
LINE
  5
3780
330
3469
100
AcDbEntity
  8
DIM
370
    -2
100
AcDbLine
 10
954.728321204041
 20
-4077.957870782096
 30
0.0
 11
954.728321204041
 21
-4082.957870782096
 31
0.0
  0
LINE
  5
3781
330
3469
100
AcDbEntity
  8
DIM
370
    -2
100
AcDbLine
 10
954.728321204041
 20
-4062.957870782097
 30
0.0
 11
954.728321204041
 21
-4057.957870782096
 31
0.0
  0
LINE
  5
3782
330
3469
100
AcDbEntity
  8
DIM
370
    -2
100
AcDbLine
 10
954.728321204041
 20
-4072.957870782096
 30
0.0
 11
954.728321204041
 21
-4067.957870782096
 31
0.0
  0
SOLID
  5
3783
330
3469
100
AcDbEntity
  8
DIM
100
AcDbTrace
 10
953.8949878707077
 20
-4077.957870782096
 30
0.0
 11
955.5616545373744
 21
-4077.957870782096
 31
0.0
 12
954.728321204041
 22
-4072.957870782096
 32
0.0
 13
954.728321204041
 23
-4072.957870782096
 33
0.0
  0
SOLID
  5
3784
330
3469
100
AcDbEntity
  8
DIM
100
AcDbTrace
 10
953.8949878707077
 20
-4062.957870782097
 30
0.0
 11
955.5616545373744
 21
-4062.957870782097
 31
0.0
 12
954.728321204041
 22
-4067.957870782096
 32
0.0
 13
954.728321204041
 23
-4067.957870782096
 33
0.0
  0
MTEXT
  5
3785
330
3469
100
AcDbEntity
  8
DIM
100
AcDbMText
 10
952.9783212040417
 20
-4070.457870782096
 30
0.0
 40
3.5
 41
0.0
 71
     5
 72
     1
  1
\A1;5
  7
ESKD
 11
0.0000000000000001
 21
1.0
 31
0.0
 73
     1
 44
1.0
  0
POINT
  5
3786
330
3469
100
AcDbEntity
  8
DEFPOINTS
 62
     0
100
AcDbPoint
 10
971.6619515769634
 20
-4072.957870782096
 30
0.0
  0
POINT
  5
3787
330
3469
100
AcDbEntity
  8
DEFPOINTS
 62
     0
100
AcDbPoint
 10
965.6619515769598
 20
-4067.957870782096
 30
0.0
  0
POINT
  5
3788
330
3469
100
AcDbEntity
  8
DEFPOINTS
 62
     0
100
AcDbPoint
 10
954.728321204041
 20
-4067.957870782096
 30
0.0
  0
ENDBLK
  5
3476
330
3469
100
AcDbEntity
  8
0
100
AcDbBlockEnd
  0
BLOCK
  5
3481
330
3477
100
AcDbEntity
  8
0
100
AcDbBlockBegin
  2
*D62
 70
     1
 10
0.0
 20
0.0
 30
0.0
  3
*D62
  1

  0
LINE
  5
3789
330
3477
100
AcDbEntity
  8
DIM
370
    -2
100
AcDbLine
 10
964.6619515769598
 20
-4066.957870782096
 30
0.0
 11
940.5304138391285
 21
-4066.957870782096
 31
0.0
  0
LINE
  5
378A
330
3477
100
AcDbEntity
  8
DIM
370
    -2
100
AcDbLine
 10
964.6619515769526
 20
-4047.957870782096
 30
0.0
 11
940.5304138391285
 21
-4047.957870782096
 31
0.0
  0
LINE
  5
378B
330
3477
100
AcDbEntity
  8
DIM
370
    -2
100
AcDbLine
 10
942.5304138391284
 20
-4061.957870782096
 30
0.0
 11
942.5304138391284
 21
-4052.957870782097
 31
0.0
  0
SOLID
  5
378C
330
3477
100
AcDbEntity
  8
DIM
100
AcDbTrace
 10
941.697080505795
 20
-4061.957870782096
 30
0.0
 11
943.3637471724617
 21
-4061.957870782096
 31
0.0
 12
942.5304138391284
 22
-4066.957870782096
 32
0.0
 13
942.5304138391284
 23
-4066.957870782096
 33
0.0
  0
SOLID
  5
378D
330
3477
100
AcDbEntity
  8
DIM
100
AcDbTrace
 10
941.697080505795
 20
-4052.957870782097
 30
0.0
 11
943.3637471724617
 21
-4052.957870782097
 31
0.0
 12
942.5304138391284
 22
-4047.957870782096
 32
0.0
 13
942.5304138391284
 23
-4047.957870782096
 33
0.0
  0
MTEXT
  5
378E
330
3477
100
AcDbEntity
  8
DIM
100
AcDbMText
 10
940.7804138391291
 20
-4057.457870782097
 30
0.0
 40
3.5
 41
0.0
 71
     5
 72
     1
  1
\A1;20
  7
ESKD
 11
0.0000000000000001
 21
1.0
 31
0.0
 73
     1
 44
1.0
  0
POINT
  5
378F
330
3477
100
AcDbEntity
  8
DEFPOINTS
 62
     0
100
AcDbPoint
 10
964.6619515769598
 20
-4066.957870782096
 30
0.0
  0
POINT
  5
3790
330
3477
100
AcDbEntity
  8
DEFPOINTS
 62
     0
100
AcDbPoint
 10
964.6619515769526
 20
-4047.957870782096
 30
0.0
  0
POINT
  5
3791
330
3477
100
AcDbEntity
  8
DEFPOINTS
 62
     0
100
AcDbPoint
 10
942.5304138391284
 20
-4047.957870782096
 30
0.0
  0
ENDBLK
  5
3482
330
3477
100
AcDbEntity
  8
0
100
AcDbBlockEnd
  0
BLOCK
  5
348D
330
3483
100
AcDbEntity
  8
0
100
AcDbBlockBegin
  2
*D63
 70
     1
 10
0.0
 20
0.0
 30
0.0
  3
*D63
  1

  0
LINE
  5
3792
330
3483
100
AcDbEntity
  8
DIM
370
    -2
100
AcDbLine
 10
974.6619515769598
 20
-4072.957870782096
 30
0.0
 11
974.6619515769598
 21
-4088.009984346252
 31
0.0
  0
LINE
  5
3793
330
3483
100
AcDbEntity
  8
DIM
370
    -2
100
AcDbLine
 10
1002.661951576963
 20
-4029.957870780714
 30
0.0
 11
1002.661951576963
 21
-4088.009984346252
 31
0.0
  0
LINE
  5
3794
330
3483
100
AcDbEntity
  8
DIM
370
    -2
100
AcDbLine
 10
979.6619515769599
 20
-4086.009984346252
 30
0.0
 11
997.661951576963
 21
-4086.009984346252
 31
0.0
  0
SOLID
  5
3795
330
3483
100
AcDbEntity
  8
DIM
100
AcDbTrace
 10
979.6619515769599
 20
-4085.176651012918
 30
0.0
 11
979.6619515769599
 21
-4086.843317679585
 31
0.0
 12
974.6619515769598
 22
-4086.009984346252
 32
0.0
 13
974.6619515769598
 23
-4086.009984346252
 33
0.0
  0
SOLID
  5
3796
330
3483
100
AcDbEntity
  8
DIM
100
AcDbTrace
 10
997.661951576963
 20
-4085.176651012918
 30
0.0
 11
997.661951576963
 21
-4086.843317679585
 31
0.0
 12
1002.661951576963
 22
-4086.009984346252
 32
0.0
 13
1002.661951576963
 23
-4086.009984346252
 33
0.0
  0
MTEXT
  5
3797
330
3483
100
AcDbEntity
  8
DIM
100
AcDbMText
 10
988.6619515769615
 20
-4084.259984346252
 30
0.0
 40
3.5
 41
0.0
 71
     5
 72
     1
  1
\A1;25
  7
ESKD
 73
     1
 44
1.0
  0
POINT
  5
3798
330
3483
100
AcDbEntity
  8
DEFPOINTS
 62
     0
100
AcDbPoint
 10
974.6619515769598
 20
-4072.957870782096
 30
0.0
  0
POINT
  5
3799
330
3483
100
AcDbEntity
  8
DEFPOINTS
 62
     0
100
AcDbPoint
 10
1002.661951576963
 20
-4029.957870780714
 30
0.0
  0
POINT
  5
379A
330
3483
100
AcDbEntity
  8
DEFPOINTS
 62
     0
100
AcDbPoint
 10
1002.661951576963
 20
-4086.009984346252
 30
0.0
  0
ENDBLK
  5
348E
330
3483
100
AcDbEntity
  8
0
100
AcDbBlockEnd
  0
BLOCK
  5
3499
330
348F
100
AcDbEntity
  8
0
100
AcDbBlockBegin
  2
*D64
 70
     1
 10
0.0
 20
0.0
 30
0.0
  3
*D64
  1

  0
LINE
  5
379B
330
348F
100
AcDbEntity
  8
DIM
370
    -2
100
AcDbLine
 10
912.6619515769631
 20
-4027.957870780766
 30
0.0
 11
879.5525549466406
 21
-4027.957870780766
 31
0.0
  0
LINE
  5
379C
330
348F
100
AcDbEntity
  8
DIM
370
    -2
100
AcDbLine
 10
912.6619515769631
 20
-3927.957870783428
 30
0.0
 11
879.5525549466406
 21
-3927.957870783428
 31
0.0
  0
LINE
  5
379D
330
348F
100
AcDbEntity
  8
DIM
370
    -2
100
AcDbLine
 10
881.5525549466405
 20
-4022.957870780765
 30
0.0
 11
881.5525549466405
 21
-3932.957870783428
 31
0.0
  0
SOLID
  5
379E
330
348F
100
AcDbEntity
  8
DIM
100
AcDbTrace
 10
880.7192216133072
 20
-4022.957870780765
 30
0.0
 11
882.385888279974
 21
-4022.957870780765
 31
0.0
 12
881.5525549466405
 22
-4027.957870780766
 32
0.0
 13
881.5525549466405
 23
-4027.957870780766
 33
0.0
  0
SOLID
  5
379F
330
348F
100
AcDbEntity
  8
DIM
100
AcDbTrace
 10
880.7192216133072
 20
-3932.957870783428
 30
0.0
 11
882.385888279974
 21
-3932.957870783428
 31
0.0
 12
881.5525549466405
 22
-3927.957870783428
 32
0.0
 13
881.5525549466405
 23
-3927.957870783428
 33
0.0
  0
MTEXT
  5
37A0
330
348F
100
AcDbEntity
  8
DIM
100
AcDbMText
 10
879.8025549466412
 20
-3977.957870782097
 30
0.0
 40
3.5
 41
0.0
 71
     5
 72
     1
  1
\A1;%%C100%%P1
  7
ESKD
 11
0.0000000000000001
 21
1.0
 31
0.0
 73
     1
 44
1.0
  0
POINT
  5
37A1
330
348F
100
AcDbEntity
  8
DEFPOINTS
 62
     0
100
AcDbPoint
 10
912.6619515769631
 20
-4027.957870780766
 30
0.0
  0
POINT
  5
37A2
330
348F
100
AcDbEntity
  8
DEFPOINTS
 62
     0
100
AcDbPoint
 10
912.6619515769631
 20
-3927.957870783428
 30
0.0
  0
POINT
  5
37A3
330
348F
100
AcDbEntity
  8
DEFPOINTS
 62
     0
100
AcDbPoint
 10
881.5525549466405
 20
-3927.957870783428
 30
0.0
  0
ENDBLK
  5
349A
330
348F
100
AcDbEntity
  8
0
100
AcDbBlockEnd
  0
BLOCK
  5
34A5
330
349B
100
AcDbEntity
  8
0
100
AcDbBlockBegin
  2
*D65
 70
     1
 10
0.0
 20
0.0
 30
0.0
  3
*D65
  1

  0
LINE
  5
37A4
330
349B
100
AcDbEntity
  8
DIM
370
    -2
100
AcDbLine
 10
902.9951160247629
 20
-3972.742017990063
 30
0.0
 11
902.9951160247629
 21
-3894.565721642253
 31
0.0
  0
LINE
  5
37A5
330
349B
100
AcDbEntity
  8
DIM
370
    -2
100
AcDbLine
 10
1040.661951576963
 20
-3943.509502479739
 30
0.0
 11
1040.661951576963
 21
-3894.565721642253
 31
0.0
  0
LINE
  5
37A6
330
349B
100
AcDbEntity
  8
DIM
370
    -2
100
AcDbLine
 10
907.9951160247629
 20
-3896.565721642252
 30
0.0
 11
1035.661951576963
 21
-3896.565721642252
 31
0.0
  0
SOLID
  5
37A7
330
349B
100
AcDbEntity
  8
DIM
100
AcDbTrace
 10
907.9951160247629
 20
-3895.732388308919
 30
0.0
 11
907.9951160247629
 21
-3897.399054975586
 31
0.0
 12
902.9951160247629
 22
-3896.565721642252
 32
0.0
 13
902.9951160247629
 23
-3896.565721642252
 33
0.0
  0
SOLID
  5
37A8
330
349B
100
AcDbEntity
  8
DIM
100
AcDbTrace
 10
1035.661951576963
 20
-3895.732388308919
 30
0.0
 11
1035.661951576963
 21
-3897.399054975586
 31
0.0
 12
1040.661951576963
 22
-3896.565721642252
 32
0.0
 13
1040.661951576963
 23
-3896.565721642252
 33
0.0
  0
MTEXT
  5
37A9
330
349B
100
AcDbEntity
  8
DIM
100
AcDbMText
 10
971.8285338008628
 20
-3894.815721642252
 30
0.0
 40
3.5
 41
0.0
 71
     5
 72
     1
  1
\A1;138
  7
ESKD
 73
     1
 44
1.0
  0
POINT
  5
37AA
330
349B
100
AcDbEntity
  8
DEFPOINTS
 62
     0
100
AcDbPoint
 10
902.9951160247629
 20
-3972.742017990063
 30
0.0
  0
POINT
  5
37AB
330
349B
100
AcDbEntity
  8
DEFPOINTS
 62
     0
100
AcDbPoint
 10
1040.661951576963
 20
-3943.509502479739
 30
0.0
  0
POINT
  5
37AC
330
349B
100
AcDbEntity
  8
DEFPOINTS
 62
     0
100
AcDbPoint
 10
1040.661951576963
 20
-3896.565721642252
 30
0.0
  0
ENDBLK
  5
34A6
330
349B
100
AcDbEntity
  8
0
100
AcDbBlockEnd
  0
BLOCK
  5
34B1
330
34A7
100
AcDbEntity
  8
0
100
AcDbBlockBegin
  2
*D66
 70
     1
 10
0.0
 20
0.0
 30
0.0
  3
*D66
  1

  0
LINE
  5
37AD
330
34A7
100
AcDbEntity
  8
DIM
370
    -2
100
AcDbLine
 10
912.6619515769631
 20
-3927.957870783428
 30
0.0
 11
912.6619515769631
 21
-3908.366105852472
 31
0.0
  0
LINE
  5
37AE
330
34A7
100
AcDbEntity
  8
DIM
370
    -2
100
AcDbLine
 10
1002.661951576963
 20
-3925.957870783479
 30
0.0
 11
1002.661951576963
 21
-3908.366105852472
 31
0.0
  0
LINE
  5
37AF
330
34A7
100
AcDbEntity
  8
DIM
370
    -2
100
AcDbLine
 10
917.661951576963
 20
-3910.366105852472
 30
0.0
 11
997.661951576963
 21
-3910.366105852472
 31
0.0
  0
SOLID
  5
37B0
330
34A7
100
AcDbEntity
  8
DIM
100
AcDbTrace
 10
917.661951576963
 20
-3909.532772519139
 30
0.0
 11
917.661951576963
 21
-3911.199439185806
 31
0.0
 12
912.6619515769631
 22
-3910.366105852472
 32
0.0
 13
912.6619515769631
 23
-3910.366105852472
 33
0.0
  0
SOLID
  5
37B1
330
34A7
100
AcDbEntity
  8
DIM
100
AcDbTrace
 10
997.661951576963
 20
-3909.532772519139
 30
0.0
 11
997.661951576963
 21
-3911.199439185806
 31
0.0
 12
1002.661951576963
 22
-3910.366105852472
 32
0.0
 13
1002.661951576963
 23
-3910.366105852472
 33
0.0
  0
MTEXT
  5
37B2
330
34A7
100
AcDbEntity
  8
DIM
100
AcDbMText
 10
957.661951576963
 20
-3908.616105852472
 30
0.0
 40
3.5
 41
0.0
 71
     5
 72
     1
  1
\A1;90
  7
ESKD
 73
     1
 44
1.0
  0
POINT
  5
37B3
330
34A7
100
AcDbEntity
  8
DEFPOINTS
 62
     0
100
AcDbPoint
 10
912.6619515769631
 20
-3927.957870783428
 30
0.0
  0
POINT
  5
37B4
330
34A7
100
AcDbEntity
  8
DEFPOINTS
 62
     0
100
AcDbPoint
 10
1002.661951576963
 20
-3925.957870783479
 30
0.0
  0
POINT
  5
37B5
330
34A7
100
AcDbEntity
  8
DEFPOINTS
 62
     0
100
AcDbPoint
 10
1002.661951576963
 20
-3910.366105852472
 30
0.0
  0
ENDBLK
  5
34B2
330
34A7
100
AcDbEntity
  8
0
100
AcDbBlockEnd
  0
BLOCK
  5
34BF
330
34B3
100
AcDbEntity
  8
0
100
AcDbBlockBegin
  2
*D67
 70
     1
 10
0.0
 20
0.0
 30
0.0
  3
*D67
  1

  0
LINE
  5
37B6
330
34B3
100
AcDbEntity
  8
DIM
370
    -2
100
AcDbLine
 10
995.6619515769626
 20
-3925.957870783479
 30
0.0
 11
995.6619515769626
 21
-3915.266332661911
 31
0.0
  0
LINE
  5
37B7
330
34B3
100
AcDbEntity
  8
DIM
370
    -2
100
AcDbLine
 10
1002.661951576963
 20
-3925.957870783479
 30
0.0
 11
1002.661951576963
 21
-3915.266332661911
 31
0.0
  0
LINE
  5
37B8
330
34B3
100
AcDbEntity
  8
DIM
370
    -2
100
AcDbLine
 10
990.6619515769625
 20
-3917.26633266191
 30
0.0
 11
985.6619515769626
 21
-3917.26633266191
 31
0.0
  0
LINE
  5
37B9
330
34B3
100
AcDbEntity
  8
DIM
370
    -2
100
AcDbLine
 10
1007.661951576963
 20
-3917.26633266191
 30
0.0
 11
1012.661951576963
 21
-3917.26633266191
 31
0.0
  0
LINE
  5
37BA
330
34B3
100
AcDbEntity
  8
DIM
370
    -2
100
AcDbLine
 10
995.6619515769626
 20
-3917.26633266191
 30
0.0
 11
1002.661951576963
 21
-3917.26633266191
 31
0.0
  0
SOLID
  5
37BB
330
34B3
100
AcDbEntity
  8
DIM
100
AcDbTrace
 10
990.6619515769625
 20
-3916.432999328577
 30
0.0
 11
990.6619515769625
 21
-3918.099665995244
 31
0.0
 12
995.6619515769626
 22
-3917.26633266191
 32
0.0
 13
995.6619515769626
 23
-3917.26633266191
 33
0.0
  0
SOLID
  5
37BC
330
34B3
100
AcDbEntity
  8
DIM
100
AcDbTrace
 10
1007.661951576963
 20
-3916.432999328577
 30
0.0
 11
1007.661951576963
 21
-3918.099665995244
 31
0.0
 12
1002.661951576963
 22
-3917.26633266191
 32
0.0
 13
1002.661951576963
 23
-3917.26633266191
 33
0.0
  0
MTEXT
  5
37BD
330
34B3
100
AcDbEntity
  8
DIM
100
AcDbMText
 10
999.1619515769627
 20
-3915.516332661911
 30
0.0
 40
3.5
 41
0.0
 71
     5
 72
     1
  1
\A1;7
  7
ESKD
 73
     1
 44
1.0
  0
POINT
  5
37BE
330
34B3
100
AcDbEntity
  8
DEFPOINTS
 62
     0
100
AcDbPoint
 10
995.6619515769626
 20
-3925.957870783479
 30
0.0
  0
POINT
  5
37BF
330
34B3
100
AcDbEntity
  8
DEFPOINTS
 62
     0
100
AcDbPoint
 10
1002.661951576963
 20
-3925.957870783479
 30
0.0
  0
POINT
  5
37C0
330
34B3
100
AcDbEntity
  8
DEFPOINTS
 62
     0
100
AcDbPoint
 10
1002.661951576963
 20
-3917.26633266191
 30
0.0
  0
ENDBLK
  5
34C0
330
34B3
100
AcDbEntity
  8
0
100
AcDbBlockEnd
  0
BLOCK
  5
34E7
330
34DB
100
AcDbEntity
  8
0
100
AcDbBlockBegin
  2
*D68
 70
     1
 10
0.0
 20
0.0
 30
0.0
  3
*D68
  1

  0
LINE
  5
37D5
330
34DB
100
AcDbEntity
  8
DIM
370
    -2
100
AcDbLine
 10
84.3655763605766
 20
-4037.119342253549
 30
0.0
 11
84.3655763605766
 21
-4053.641757210967
 31
0.0
  0
LINE
  5
37D6
330
34DB
100
AcDbEntity
  8
DIM
370
    -2
100
AcDbLine
 10
90.3655763605766
 20
-4037.119342253549
 30
0.0
 11
90.3655763605766
 21
-4053.641757210967
 31
0.0
  0
LINE
  5
37D7
330
34DB
100
AcDbEntity
  8
DIM
370
    -2
100
AcDbLine
 10
79.3655763605766
 20
-4051.641757210967
 30
0.0
 11
74.3655763605766
 21
-4051.641757210967
 31
0.0
  0
LINE
  5
37D8
330
34DB
100
AcDbEntity
  8
DIM
370
    -2
100
AcDbLine
 10
95.3655763605766
 20
-4051.641757210967
 30
0.0
 11
100.3655763605766
 21
-4051.641757210967
 31
0.0
  0
MTEXT
  5
37D9
330
34DB
100
AcDbEntity
  8
DIM
100
AcDbMText
 10
87.36557636057659
 20
-4060.391757210967
 30
0.0
 40
3.5
 41
0.0
 71
     5
 72
     1
  1
\A1;%%C6max
  7
ESKD
 73
     1
 44
1.0
  0
LINE
  5
37DA
330
34DB
100
AcDbEntity
  8
DIM
370
    -2
100
AcDbLine
 10
84.3655763605766
 20
-4051.641757210967
 30
0.0
 11
90.3655763605766
 21
-4051.641757210967
 31
0.0
  0
SOLID
  5
37DB
330
34DB
100
AcDbEntity
  8
DIM
100
AcDbTrace
 10
79.3655763605766
 20
-4050.808423877634
 30
0.0
 11
79.3655763605766
 21
-4052.475090544301
 31
0.0
 12
84.3655763605766
 22
-4051.641757210967
 32
0.0
 13
84.3655763605766
 23
-4051.641757210967
 33
0.0
  0
SOLID
  5
37DC
330
34DB
100
AcDbEntity
  8
DIM
100
AcDbTrace
 10
95.3655763605766
 20
-4050.808423877634
 30
0.0
 11
95.3655763605766
 21
-4052.475090544301
 31
0.0
 12
90.3655763605766
 22
-4051.641757210967
 32
0.0
 13
90.3655763605766
 23
-4051.641757210967
 33
0.0
  0
POINT
  5
37DD
330
34DB
100
AcDbEntity
  8
DEFPOINTS
 62
     0
100
AcDbPoint
 10
84.3655763605766
 20
-4037.119342253549
 30
0.0
  0
POINT
  5
37DE
330
34DB
100
AcDbEntity
  8
DEFPOINTS
 62
     0
100
AcDbPoint
 10
90.3655763605766
 20
-4037.119342253549
 30
0.0
  0
POINT
  5
37DF
330
34DB
100
AcDbEntity
  8
DEFPOINTS
 62
     0
100
AcDbPoint
 10
90.3655763605766
 20
-4051.641757210967
 30
0.0
  0
ENDBLK
  5
34E8
330
34DB
100
AcDbEntity
  8
0
100
AcDbBlockEnd
  0
BLOCK
  5
34F3
330
34E9
100
AcDbEntity
  8
0
100
AcDbBlockBegin
  2
*D69
 70
     1
 10
0.0
 20
0.0
 30
0.0
  3
*D69
  1

  0
LINE
  5
37E0
330
34E9
100
AcDbEntity
  8
DIM
370
    -2
100
AcDbLine
 10
77.36557636057296
 20
-4031.119342253549
 30
0.0
 11
77.36557636057296
 21
-4064.768249400844
 31
0.0
  0
LINE
  5
37E1
330
34E9
100
AcDbEntity
  8
DIM
370
    -2
100
AcDbLine
 10
97.36557636057296
 20
-4031.119342253549
 30
0.0
 11
97.36557636057296
 21
-4064.768249400844
 31
0.0
  0
LINE
  5
37E2
330
34E9
100
AcDbEntity
  8
DIM
370
    -2
100
AcDbLine
 10
82.36557636057296
 20
-4062.768249400844
 30
0.0
 11
92.36557636057296
 21
-4062.768249400844
 31
0.0
  0
MTEXT
  5
37E3
330
34E9
100
AcDbEntity
  8
DIM
100
AcDbMText
 10
87.36557636057296
 20
-4073.268249400844
 30
0.0
 40
3.5
 41
0.0
 71
     5
 72
     1
  1
\A1;М20х1.5-8g
  7
ESKD
 73
     1
 44
1.0
  0
SOLID
  5
37E4
330
34E9
100
AcDbEntity
  8
DIM
100
AcDbTrace
 10
82.36557636057296
 20
-4061.93491606751
 30
0.0
 11
82.36557636057296
 21
-4063.601582734178
 31
0.0
 12
77.36557636057296
 22
-4062.768249400844
 32
0.0
 13
77.36557636057296
 23
-4062.768249400844
 33
0.0
  0
SOLID
  5
37E5
330
34E9
100
AcDbEntity
  8
DIM
100
AcDbTrace
 10
92.36557636057296
 20
-4061.93491606751
 30
0.0
 11
92.36557636057296
 21
-4063.601582734178
 31
0.0
 12
97.36557636057296
 22
-4062.768249400844
 32
0.0
 13
97.36557636057296
 23
-4062.768249400844
 33
0.0
  0
POINT
  5
37E6
330
34E9
100
AcDbEntity
  8
DEFPOINTS
 62
     0
100
AcDbPoint
 10
77.36557636057296
 20
-4031.119342253549
 30
0.0
  0
POINT
  5
37E7
330
34E9
100
AcDbEntity
  8
DEFPOINTS
 62
     0
100
AcDbPoint
 10
97.36557636057296
 20
-4031.119342253549
 30
0.0
  0
POINT
  5
37E8
330
34E9
100
AcDbEntity
  8
DEFPOINTS
 62
     0
100
AcDbPoint
 10
97.36557636057296
 20
-4062.768249400844
 30
0.0
  0
ENDBLK
  5
34F4
330
34E9
100
AcDbEntity
  8
0
100
AcDbBlockEnd
  0
BLOCK
  5
34FF
330
34F5
100
AcDbEntity
  8
0
100
AcDbBlockBegin
  2
*D70
 70
     1
 10
0.0
 20
0.0
 30
0.0
  3
*D70
  1

  0
LINE
  5
37E9
330
34F5
100
AcDbEntity
  8
DIM
370
    -2
100
AcDbLine
 10
-500.5359181585744
 20
-4002.695594531592
 30
0.0
 11
-500.5359181585744
 21
-4007.505255349779
 31
0.0
  0
LINE
  5
37EA
330
34F5
100
AcDbEntity
  8
DIM
370
    -2
100
AcDbLine
 10
-483.5359181585708
 20
-4003.632148137654
 30
0.0
 11
-483.5359181585708
 21
-4007.505255349779
 31
0.0
  0
LINE
  5
37EB
330
34F5
100
AcDbEntity
  8
DIM
370
    -2
100
AcDbLine
 10
-495.5359181585745
 20
-4005.505255349779
 30
0.0
 11
-488.5359181585709
 21
-4005.505255349779
 31
0.0
  0
SOLID
  5
37EC
330
34F5
100
AcDbEntity
  8
DIM
100
AcDbTrace
 10
-495.5359181585745
 20
-4004.671922016446
 30
0.0
 11
-495.5359181585745
 21
-4006.338588683113
 31
0.0
 12
-500.5359181585744
 22
-4005.505255349779
 32
0.0
 13
-500.5359181585744
 23
-4005.505255349779
 33
0.0
  0
SOLID
  5
37ED
330
34F5
100
AcDbEntity
  8
DIM
100
AcDbTrace
 10
-488.5359181585709
 20
-4004.671922016446
 30
0.0
 11
-488.5359181585709
 21
-4006.338588683113
 31
0.0
 12
-483.5359181585708
 22
-4005.505255349779
 32
0.0
 13
-483.5359181585708
 23
-4005.505255349779
 33
0.0
  0
MTEXT
  5
37EE
330
34F5
100
AcDbEntity
  8
DIM
100
AcDbMText
 10
-492.0359181585727
 20
-4003.755255349779
 30
0.0
 40
3.5
 41
0.0
 71
     5
 72
     1
  1
\A1;17
  7
ESKD
 73
     1
 44
1.0
  0
POINT
  5
37EF
330
34F5
100
AcDbEntity
  8
DEFPOINTS
 62
     0
100
AcDbPoint
 10
-500.5359181585744
 20
-4002.695594531592
 30
0.0
  0
POINT
  5
37F0
330
34F5
100
AcDbEntity
  8
DEFPOINTS
 62
     0
100
AcDbPoint
 10
-483.5359181585708
 20
-4003.632148137654
 30
0.0
  0
POINT
  5
37F1
330
34F5
100
AcDbEntity
  8
DEFPOINTS
 62
     0
100
AcDbPoint
 10
-483.5359181585708
 20
-4005.505255349779
 30
0.0
  0
ENDBLK
  5
3500
330
34F5
100
AcDbEntity
  8
0
100
AcDbBlockEnd
  0
BLOCK
  5
350B
330
3501
100
AcDbEntity
  8
0
100
AcDbBlockBegin
  2
*D71
 70
     1
 10
0.0
 20
0.0
 30
0.0
  3
*D71
  1

  0
LINE
  5
37F2
330
3501
100
AcDbEntity
  8
DIM
370
    -2
100
AcDbLine
 10
-231.4368530301276
 20
-3992.119342253549
 30
0.0
 11
-282.9408573805836
 21
-3992.119342253549
 31
0.0
  0
LINE
  5
37F3
330
3501
100
AcDbEntity
  8
DIM
370
    -2
100
AcDbLine
 10
-231.436853030124
 20
-3832.119342253547
 30
0.0
 11
-282.9408573805836
 21
-3832.119342253547
 31
0.0
  0
LINE
  5
37F4
330
3501
100
AcDbEntity
  8
DIM
370
    -2
100
AcDbLine
 10
-280.9408573805836
 20
-3987.119342253549
 30
0.0
 11
-280.9408573805836
 21
-3837.119342253547
 31
0.0
  0
SOLID
  5
37F5
330
3501
100
AcDbEntity
  8
DIM
100
AcDbTrace
 10
-281.7741907139169
 20
-3987.119342253549
 30
0.0
 11
-280.1075240472503
 21
-3987.119342253549
 31
0.0
 12
-280.9408573805836
 22
-3992.119342253549
 32
0.0
 13
-280.9408573805836
 23
-3992.119342253549
 33
0.0
  0
SOLID
  5
37F6
330
3501
100
AcDbEntity
  8
DIM
100
AcDbTrace
 10
-281.7741907139169
 20
-3837.119342253547
 30
0.0
 11
-280.1075240472503
 21
-3837.119342253547
 31
0.0
 12
-280.9408573805836
 22
-3832.119342253547
 32
0.0
 13
-280.9408573805836
 23
-3832.119342253547
 33
0.0
  0
MTEXT
  5
37F7
330
3501
100
AcDbEntity
  8
DIM
100
AcDbMText
 10
-283.6908573805829
 20
-3912.119342253549
 30
0.0
 40
3.5
 41
0.0
 71
     5
 72
     1
  1
\A1;%%C160%%P1.5
  7
ESKD
 11
0.0000000000000001
 21
1.0
 31
0.0
 73
     1
 44
1.0
  0
POINT
  5
37F8
330
3501
100
AcDbEntity
  8
DEFPOINTS
 62
     0
100
AcDbPoint
 10
-231.4368530301276
 20
-3992.119342253549
 30
0.0
  0
POINT
  5
37F9
330
3501
100
AcDbEntity
  8
DEFPOINTS
 62
     0
100
AcDbPoint
 10
-231.436853030124
 20
-3832.119342253547
 30
0.0
  0
POINT
  5
37FA
330
3501
100
AcDbEntity
  8
DEFPOINTS
 62
     0
100
AcDbPoint
 10
-280.9408573805836
 20
-3832.119342253547
 30
0.0
  0
ENDBLK
  5
350C
330
3501
100
AcDbEntity
  8
0
100
AcDbBlockEnd
  0
BLOCK
  5
3517
330
350D
100
AcDbEntity
  8
0
100
AcDbBlockBegin
  2
*D72
 70
     1
 10
0.0
 20
0.0
 30
0.0
  3
*D72
  1

  0
LINE
  5
37FB
330
350D
100
AcDbEntity
  8
DIM
370
    -2
100
AcDbLine
 10
-133.4368530301276
 20
-3912.119342253549
 30
0.0
 11
-70.78912422642179
 21
-3912.119342253549
 31
0.0
  0
LINE
  5
37FC
330
350D
100
AcDbEntity
  8
DIM
370
    -2
100
AcDbLine
 10
-96.10368858232551
 20
-3896.119342253549
 30
0.0
 11
-70.78912422642179
 21
-3896.119342253549
 31
0.0
  0
LINE
  5
37FD
330
350D
100
AcDbEntity
  8
DIM
370
    -2
100
AcDbLine
 10
-72.78912422642179
 20
-3907.119342253549
 30
0.0
 11
-72.78912422642179
 21
-3901.119342253549
 31
0.0
  0
MTEXT
  5
37FE
330
350D
100
AcDbEntity
  8
DIM
100
AcDbMText
 10
-64.03912422642116
 20
-3904.119342253549
 30
0.0
 40
3.5
 41
0.0
 71
     5
 72
     1
  1
\A1;16%%P0.35
  7
ESKD
 11
0.0000000000000001
 21
1.0
 31
0.0
 73
     1
 44
1.0
  0
SOLID
  5
37FF
330
350D
100
AcDbEntity
  8
DIM
100
AcDbTrace
 10
-73.62245755975512
 20
-3907.119342253549
 30
0.0
 11
-71.95579089308846
 21
-3907.119342253549
 31
0.0
 12
-72.78912422642179
 22
-3912.119342253549
 32
0.0
 13
-72.78912422642179
 23
-3912.119342253549
 33
0.0
  0
SOLID
  5
3800
330
350D
100
AcDbEntity
  8
DIM
100
AcDbTrace
 10
-73.62245755975512
 20
-3901.119342253549
 30
0.0
 11
-71.95579089308846
 21
-3901.119342253549
 31
0.0
 12
-72.78912422642179
 22
-3896.119342253549
 32
0.0
 13
-72.78912422642179
 23
-3896.119342253549
 33
0.0
  0
POINT
  5
3801
330
350D
100
AcDbEntity
  8
DEFPOINTS
 62
     0
100
AcDbPoint
 10
-133.4368530301276
 20
-3912.119342253549
 30
0.0
  0
POINT
  5
3802
330
350D
100
AcDbEntity
  8
DEFPOINTS
 62
     0
100
AcDbPoint
 10
-96.10368858232551
 20
-3896.119342253549
 30
0.0
  0
POINT
  5
3803
330
350D
100
AcDbEntity
  8
DEFPOINTS
 62
     0
100
AcDbPoint
 10
-72.78912422642179
 20
-3896.119342253549
 30
0.0
  0
ENDBLK
  5
3518
330
350D
100
AcDbEntity
  8
0
100
AcDbBlockEnd
  0
BLOCK
  5
3523
330
3519
100
AcDbEntity
  8
0
100
AcDbBlockBegin
  2
*D73
 70
     1
 10
0.0
 20
0.0
 30
0.0
  3
*D73
  1

  0
LINE
  5
3804
330
3519
100
AcDbEntity
  8
DIM
370
    -2
100
AcDbLine
 10
-241.1036885823255
 20
-3906.903489461516
 30
0.0
 11
-241.1036885823255
 21
-3781.245417783832
 31
0.0
  0
LINE
  5
3805
330
3519
100
AcDbEntity
  8
DIM
370
    -2
100
AcDbLine
 10
-96.10368858232915
 20
-3885.393009829279
 30
0.0
 11
-96.10368858232915
 21
-3781.245417783832
 31
0.0
  0
LINE
  5
3806
330
3519
100
AcDbEntity
  8
DIM
370
    -2
100
AcDbLine
 10
-236.1036885823255
 20
-3783.245417783831
 30
0.0
 11
-101.1036885823291
 21
-3783.245417783831
 31
0.0
  0
SOLID
  5
3807
330
3519
100
AcDbEntity
  8
DIM
100
AcDbTrace
 10
-236.1036885823255
 20
-3782.412084450498
 30
0.0
 11
-236.1036885823255
 21
-3784.078751117166
 31
0.0
 12
-241.1036885823255
 22
-3783.245417783831
 32
0.0
 13
-241.1036885823255
 23
-3783.245417783831
 33
0.0
  0
SOLID
  5
3808
330
3519
100
AcDbEntity
  8
DIM
100
AcDbTrace
 10
-101.1036885823291
 20
-3782.412084450498
 30
0.0
 11
-101.1036885823291
 21
-3784.078751117166
 31
0.0
 12
-96.10368858232915
 22
-3783.245417783831
 32
0.0
 13
-96.10368858232915
 23
-3783.245417783831
 33
0.0
  0
MTEXT
  5
3809
330
3519
100
AcDbEntity
  8
DIM
100
AcDbMText
 10
-168.6036885823273
 20
-3780.495417783832
 30
0.0
 40
3.5
 41
0.0
 71
     5
 72
     1
  1
\A1;140max
  7
ESKD
 73
     1
 44
1.0
  0
POINT
  5
380A
330
3519
100
AcDbEntity
  8
DEFPOINTS
 62
     0
100
AcDbPoint
 10
-241.1036885823255
 20
-3906.903489461516
 30
0.0
  0
POINT
  5
380B
330
3519
100
AcDbEntity
  8
DEFPOINTS
 62
     0
100
AcDbPoint
 10
-96.10368858232915
 20
-3885.393009829279
 30
0.0
  0
POINT
  5
380C
330
3519
100
AcDbEntity
  8
DEFPOINTS
 62
     0
100
AcDbPoint
 10
-96.10368858232915
 20
-3783.245417783831
 30
0.0
  0
ENDBLK
  5
3524
330
3519
100
AcDbEntity
  8
0
100
AcDbBlockEnd
  0
BLOCK
  5
352F
330
3525
100
AcDbEntity
  8
0
100
AcDbBlockBegin
  2
*D74
 70
     1
 10
0.0
 20
0.0
 30
0.0
  3
*D74
  1

  0
LINE
  5
380D
330
3525
100
AcDbEntity
  8
DIM
370
    -2
100
AcDbLine
 10
-158.4368530301276
 20
-4037.119342253549
 30
0.0
 11
-158.4368530301276
 21
-4067.20692304574
 31
0.0
  0
LINE
  5
380E
330
3525
100
AcDbEntity
  8
DIM
370
    -2
100
AcDbLine
 10
-133.4368530301276
 20
-3973.404253000568
 30
0.0
 11
-133.4368530301276
 21
-4067.20692304574
 31
0.0
  0
LINE
  5
380F
330
3525
100
AcDbEntity
  8
DIM
370
    -2
100
AcDbLine
 10
-153.4368530301276
 20
-4065.20692304574
 30
0.0
 11
-138.4368530301276
 21
-4065.20692304574
 31
0.0
  0
SOLID
  5
3810
330
3525
100
AcDbEntity
  8
DIM
100
AcDbTrace
 10
-153.4368530301276
 20
-4064.373589712406
 30
0.0
 11
-153.4368530301276
 21
-4066.040256379073
 31
0.0
 12
-158.4368530301276
 22
-4065.20692304574
 32
0.0
 13
-158.4368530301276
 23
-4065.20692304574
 33
0.0
  0
SOLID
  5
3811
330
3525
100
AcDbEntity
  8
DIM
100
AcDbTrace
 10
-138.4368530301276
 20
-4064.373589712406
 30
0.0
 11
-138.4368530301276
 21
-4066.040256379073
 31
0.0
 12
-133.4368530301276
 22
-4065.20692304574
 32
0.0
 13
-133.4368530301276
 23
-4065.20692304574
 33
0.0
  0
MTEXT
  5
3812
330
3525
100
AcDbEntity
  8
DIM
100
AcDbMText
 10
-145.9368530301276
 20
-4062.45692304574
 30
0.0
 40
3.5
 41
0.0
 71
     5
 72
     1
  1
\A1;22max
  7
ESKD
 73
     1
 44
1.0
  0
POINT
  5
3813
330
3525
100
AcDbEntity
  8
DEFPOINTS
 62
     0
100
AcDbPoint
 10
-158.4368530301276
 20
-4037.119342253549
 30
0.0
  0
POINT
  5
3814
330
3525
100
AcDbEntity
  8
DEFPOINTS
 62
     0
100
AcDbPoint
 10
-133.4368530301276
 20
-3973.404253000568
 30
0.0
  0
POINT
  5
3815
330
3525
100
AcDbEntity
  8
DEFPOINTS
 62
     0
100
AcDbPoint
 10
-133.4368530301276
 20
-4065.20692304574
 30
0.0
  0
ENDBLK
  5
3530
330
3525
100
AcDbEntity
  8
0
100
AcDbBlockEnd
  0
BLOCK
  5
353B
330
3531
100
AcDbEntity
  8
0
100
AcDbBlockBegin
  2
*D75
 70
     1
 10
0.0
 20
0.0
 30
0.0
  3
*D75
  1

  0
LINE
  5
3816
330
3531
100
AcDbEntity
  8
DIM
370
    -2
100
AcDbLine
 10
-167.4368530301276
 20
-4032.119342253548
 30
0.0
 11
-192.243407955239
 21
-4032.119342253548
 31
0.0
  0
LINE
  5
3817
330
3531
100
AcDbEntity
  8
DIM
370
    -2
100
AcDbLine
 10
-168.0714020533546
 20
-4012.119342253549
 30
0.0
 11
-192.243407955239
 21
-4012.119342253549
 31
0.0
  0
LINE
  5
3818
330
3531
100
AcDbEntity
  8
DIM
370
    -2
100
AcDbLine
 10
-190.243407955239
 20
-4027.119342253548
 30
0.0
 11
-190.243407955239
 21
-4017.119342253549
 31
0.0
  0
SOLID
  5
3819
330
3531
100
AcDbEntity
  8
DIM
100
AcDbTrace
 10
-191.0767412885723
 20
-4027.119342253548
 30
0.0
 11
-189.4100746219057
 21
-4027.119342253548
 31
0.0
 12
-190.243407955239
 22
-4032.119342253548
 32
0.0
 13
-190.243407955239
 23
-4032.119342253548
 33
0.0
  0
SOLID
  5
381A
330
3531
100
AcDbEntity
  8
DIM
100
AcDbTrace
 10
-191.0767412885723
 20
-4017.119342253549
 30
0.0
 11
-189.4100746219057
 21
-4017.119342253549
 31
0.0
 12
-190.243407955239
 22
-4012.119342253549
 32
0.0
 13
-190.243407955239
 23
-4012.119342253549
 33
0.0
  0
MTEXT
  5
381B
330
3531
100
AcDbEntity
  8
DIM
100
AcDbMText
 10
-192.9934079552384
 20
-4022.119342253549
 30
0.0
 40
3.5
 41
0.0
 71
     5
 72
     1
  1
\A1;20max
  7
ESKD
 11
0.0000000000000001
 21
1.0
 31
0.0
 73
     1
 44
1.0
  0
POINT
  5
381C
330
3531
100
AcDbEntity
  8
DEFPOINTS
 62
     0
100
AcDbPoint
 10
-167.4368530301276
 20
-4032.119342253548
 30
0.0
  0
POINT
  5
381D
330
3531
100
AcDbEntity
  8
DEFPOINTS
 62
     0
100
AcDbPoint
 10
-168.0714020533546
 20
-4012.119342253549
 30
0.0
  0
POINT
  5
381E
330
3531
100
AcDbEntity
  8
DEFPOINTS
 62
     0
100
AcDbPoint
 10
-190.243407955239
 20
-4012.119342253549
 30
0.0
  0
ENDBLK
  5
353C
330
3531
100
AcDbEntity
  8
0
100
AcDbBlockEnd
  0
BLOCK
  5
3549
330
353D
100
AcDbEntity
  8
0
100
AcDbBlockBegin
  2
*D76
 70
     1
 10
0.0
 20
0.0
 30
0.0
  3
*D76
  1

  0
LINE
  5
381F
330
353D
100
AcDbEntity
  8
DIM
370
    -2
100
AcDbLine
 10
-167.4368530301276
 20
-4032.119342253548
 30
0.0
 11
-181.7828956258186
 21
-4032.119342253548
 31
0.0
  0
LINE
  5
3820
330
353D
100
AcDbEntity
  8
DIM
370
    -2
100
AcDbLine
 10
-161.436853030124
 20
-4037.119342253549
 30
0.0
 11
-181.7828956258186
 21
-4037.119342253549
 31
0.0
  0
LINE
  5
3821
330
353D
100
AcDbEntity
  8
DIM
370
    -2
100
AcDbLine
 10
-179.7828956258185
 20
-4027.119342253548
 30
0.0
 11
-179.7828956258185
 21
-4022.119342253549
 31
0.0
  0
LINE
  5
3822
330
353D
100
AcDbEntity
  8
DIM
370
    -2
100
AcDbLine
 10
-179.7828956258186
 20
-4042.119342253548
 30
0.0
 11
-179.7828956258186
 21
-4047.119342253549
 31
0.0
  0
MTEXT
  5
3823
330
353D
100
AcDbEntity
  8
DIM
100
AcDbMText
 10
-185.0328956258179
 20
-4034.619342253549
 30
0.0
 40
3.5
 41
0.0
 71
     5
 72
     1
  1
\A1;6max
  7
ESKD
 11
0.0000000000000001
 21
1.0
 31
0.0
 73
     1
 44
1.0
  0
LINE
  5
3824
330
353D
100
AcDbEntity
  8
DIM
370
    -2
100
AcDbLine
 10
-179.7828956258186
 20
-4032.119342253548
 30
0.0
 11
-179.7828956258186
 21
-4037.119342253549
 31
0.0
  0
SOLID
  5
3825
330
353D
100
AcDbEntity
  8
DIM
100
AcDbTrace
 10
-180.6162289591519
 20
-4027.119342253548
 30
0.0
 11
-178.9495622924852
 21
-4027.119342253548
 31
0.0
 12
-179.7828956258186
 22
-4032.119342253548
 32
0.0
 13
-179.7828956258186
 23
-4032.119342253548
 33
0.0
  0
SOLID
  5
3826
330
353D
100
AcDbEntity
  8
DIM
100
AcDbTrace
 10
-180.6162289591519
 20
-4042.119342253548
 30
0.0
 11
-178.9495622924852
 21
-4042.119342253548
 31
0.0
 12
-179.7828956258186
 22
-4037.119342253549
 32
0.0
 13
-179.7828956258186
 23
-4037.119342253549
 33
0.0
  0
POINT
  5
3827
330
353D
100
AcDbEntity
  8
DEFPOINTS
 62
     0
100
AcDbPoint
 10
-167.4368530301276
 20
-4032.119342253548
 30
0.0
  0
POINT
  5
3828
330
353D
100
AcDbEntity
  8
DEFPOINTS
 62
     0
100
AcDbPoint
 10
-161.436853030124
 20
-4037.119342253549
 30
0.0
  0
POINT
  5
3829
330
353D
100
AcDbEntity
  8
DEFPOINTS
 62
     0
100
AcDbPoint
 10
-179.7828956258186
 20
-4037.119342253549
 30
0.0
  0
ENDBLK
  5
354A
330
353D
100
AcDbEntity
  8
0
100
AcDbBlockEnd
  0
BLOCK
  5
3555
330
354B
100
AcDbEntity
  8
0
100
AcDbBlockBegin
  2
*D77
 70
     1
 10
0.0
 20
0.0
 30
0.0
  3
*D77
  1

  0
LINE
  5
382A
330
354B
100
AcDbEntity
  8
DIM
370
    -2
100
AcDbLine
 10
-231.436853030124
 20
-3832.119342253547
 30
0.0
 11
-231.436853030124
 21
-3798.35719723523
 31
0.0
  0
LINE
  5
382B
330
354B
100
AcDbEntity
  8
DIM
370
    -2
100
AcDbLine
 10
-133.436853030124
 20
-3846.40051458127
 30
0.0
 11
-133.436853030124
 21
-3798.35719723523
 31
0.0
  0
LINE
  5
382C
330
354B
100
AcDbEntity
  8
DIM
370
    -2
100
AcDbLine
 10
-226.436853030124
 20
-3800.357197235229
 30
0.0
 11
-138.436853030124
 21
-3800.357197235229
 31
0.0
  0
SOLID
  5
382D
330
354B
100
AcDbEntity
  8
DIM
100
AcDbTrace
 10
-226.436853030124
 20
-3799.523863901896
 30
0.0
 11
-226.436853030124
 21
-3801.190530568563
 31
0.0
 12
-231.436853030124
 22
-3800.357197235229
 32
0.0
 13
-231.436853030124
 23
-3800.357197235229
 33
0.0
  0
SOLID
  5
382E
330
354B
100
AcDbEntity
  8
DIM
100
AcDbTrace
 10
-138.436853030124
 20
-3799.523863901896
 30
0.0
 11
-138.436853030124
 21
-3801.190530568563
 31
0.0
 12
-133.436853030124
 22
-3800.357197235229
 32
0.0
 13
-133.436853030124
 23
-3800.357197235229
 33
0.0
  0
MTEXT
  5
382F
330
354B
100
AcDbEntity
  8
DIM
100
AcDbMText
 10
-182.436853030124
 20
-3797.60719723523
 30
0.0
 40
3.5
 41
0.0
 71
     5
 72
     1
  1
\A1;93max
  7
ESKD
 73
     1
 44
1.0
  0
POINT
  5
3830
330
354B
100
AcDbEntity
  8
DEFPOINTS
 62
     0
100
AcDbPoint
 10
-231.436853030124
 20
-3832.119342253547
 30
0.0
  0
POINT
  5
3831
330
354B
100
AcDbEntity
  8
DEFPOINTS
 62
     0
100
AcDbPoint
 10
-133.436853030124
 20
-3846.40051458127
 30
0.0
  0
POINT
  5
3832
330
354B
100
AcDbEntity
  8
DEFPOINTS
 62
     0
100
AcDbPoint
 10
-133.436853030124
 20
-3800.357197235229
 30
0.0
  0
ENDBLK
  5
3556
330
354B
100
AcDbEntity
  8
0
100
AcDbBlockEnd
  0
BLOCK
  5
3A0F
330
3A0E
100
AcDbEntity
  8
0
100
AcDbBlockBegin
  2
*D78
 70
     1
 10
0.0
 20
0.0
 30
0.0
  3
*D78
  1

  0
LINE
  5
3B27
330
3A0E
100
AcDbEntity
  8
0
 62
     0
370
    -2
100
AcDbLine
 10
5809.373748684119
 20
-1744.36123445745
 30
0.0
 11
5923.857731122153
 21
-1744.36123445745
 31
0.0
  0
LINE
  5
3B28
330
3A0E
100
AcDbEntity
  8
0
 62
     0
370
    -2
100
AcDbLine
 10
5809.373748684119
 20
-2744.36123445745
 30
0.0
 11
5923.857731122152
 21
-2744.36123445745
 31
0.0
  0
LINE
  5
3B29
330
3A0E
100
AcDbEntity
  8
0
 62
     0
370
    -2
100
AcDbLine
 10
5922.607731122154
 20
-1746.86123445745
 30
0.0
 11
5922.607731122152
 21
-2741.861234457451
 31
0.0
  0
SOLID
  5
3B2A
330
3A0E
100
AcDbEntity
  8
0
 62
     0
100
AcDbTrace
 10
5922.191064455486
 20
-1746.86123445745
 30
0.0
 11
5923.024397788821
 21
-1746.86123445745
 31
0.0
 12
5922.607731122154
 22
-1744.36123445745
 32
0.0
 13
5922.607731122154
 23
-1744.36123445745
 33
0.0
  0
SOLID
  5
3B2B
330
3A0E
100
AcDbEntity
  8
0
 62
     0
100
AcDbTrace
 10
5922.191064455486
 20
-2741.861234457451
 30
0.0
 11
5923.024397788819
 21
-2741.861234457451
 31
0.0
 12
5922.607731122152
 22
-2744.36123445745
 32
0.0
 13
5922.607731122152
 23
-2744.36123445745
 33
0.0
  0
MTEXT
  5
3B2C
330
3A0E
100
AcDbEntity
  8
0
 62
     0
100
AcDbMText
 10
5877.607731122154
 20
-2244.361234457449
 30
0.0
 40
70.0
 41
0.0
 71
     5
 72
     1
  1
1 м
 11
0.0000000000000001
 21
1.0
 31
0.0
 73
     1
 44
1.0
  0
POINT
  5
3B2D
330
3A0E
100
AcDbEntity
  8
DEFPOINTS
 62
     0
100
AcDbPoint
 10
5808.74874868412
 20
-1744.36123445745
 30
0.0
  0
POINT
  5
3B2E
330
3A0E
100
AcDbEntity
  8
DEFPOINTS
 62
     0
100
AcDbPoint
 10
5808.74874868412
 20
-2744.36123445745
 30
0.0
  0
POINT
  5
3B2F
330
3A0E
100
AcDbEntity
  8
DEFPOINTS
 62
     0
100
AcDbPoint
 10
5922.607731122152
 20
-2744.36123445745
 30
0.0
  0
ENDBLK
  5
3A10
330
3A0E
100
AcDbEntity
  8
0
100
AcDbBlockEnd
  0
BLOCK
  5
3A4D
330
3A4C
100
AcDbEntity
  8
0
100
AcDbBlockBegin
  2
*D79
 70
     1
 10
0.0
 20
0.0
 30
0.0
  3
*D79
  1

  0
LINE
  5
3B30
330
3A4C
100
AcDbEntity
  8
0
 62
     0
370
    -2
100
AcDbLine
 10
5808.74874868412
 20
-2744.361234457452
 30
0.0
 11
5808.74874868412
 21
-2858.845216895484
 31
0.0
  0
LINE
  5
3B31
330
3A4C
100
AcDbEntity
  8
0
 62
     0
370
    -2
100
AcDbLine
 10
4808.74874868412
 20
-2744.36123445745
 30
0.0
 11
4808.74874868412
 21
-2858.845216895483
 31
0.0
  0
LINE
  5
3B32
330
3A4C
100
AcDbEntity
  8
0
 62
     0
370
    -2
100
AcDbLine
 10
5806.24874868412
 20
-2857.595216895484
 30
0.0
 11
4811.24874868412
 21
-2857.595216895483
 31
0.0
  0
SOLID
  5
3B33
330
3A4C
100
AcDbEntity
  8
0
 62
     0
100
AcDbTrace
 10
5806.24874868412
 20
-2857.178550228817
 30
0.0
 11
5806.24874868412
 21
-2858.01188356215
 31
0.0
 12
5808.74874868412
 22
-2857.595216895484
 32
0.0
 13
5808.74874868412
 23
-2857.595216895484
 33
0.0
  0
SOLID
  5
3B34
330
3A4C
100
AcDbEntity
  8
0
 62
     0
100
AcDbTrace
 10
4811.24874868412
 20
-2857.178550228816
 30
0.0
 11
4811.24874868412
 21
-2858.011883562149
 31
0.0
 12
4808.74874868412
 22
-2857.595216895483
 32
0.0
 13
4808.74874868412
 23
-2857.595216895483
 33
0.0
  0
MTEXT
  5
3B35
330
3A4C
100
AcDbEntity
  8
0
 62
     0
100
AcDbMText
 10
5308.74874868412
 20
-2812.595216895483
 30
0.0
 40
70.0
 41
0.0
 71
     5
 72
     1
  1
1 м
 73
     1
 44
1.0
  0
POINT
  5
3B36
330
3A4C
100
AcDbEntity
  8
DEFPOINTS
 62
     0
100
AcDbPoint
 10
5808.74874868412
 20
-2743.736234457451
 30
0.0
  0
POINT
  5
3B37
330
3A4C
100
AcDbEntity
  8
DEFPOINTS
 62
     0
100
AcDbPoint
 10
4808.74874868412
 20
-2743.73623445745
 30
0.0
  0
POINT
  5
3B38
330
3A4C
100
AcDbEntity
  8
DEFPOINTS
 62
     0
100
AcDbPoint
 10
4808.74874868412
 20
-2857.595216895483
 30
0.0
  0
ENDBLK
  5
3A4E
330
3A4C
100
AcDbEntity
  8
0
100
AcDbBlockEnd
  0
BLOCK
  5
3E25
330
3E24
100
AcDbEntity
  8
0
100
AcDbBlockBegin
  2
*D80
 70
     1
 10
0.0
 20
0.0
 30
0.0
  3
*D80
  1

  0
LINE
  5
3E3C
330
3E24
100
AcDbEntity
  8
0
 62
     0
370
    -2
100
AcDbLine
 10
5808.74874868412
 20
-4493.212813820615
 30
0.0
 11
5808.74874868412
 21
-4607.696796258647
 31
0.0
  0
LINE
  5
3E3D
330
3E24
100
AcDbEntity
  8
0
 62
     0
370
    -2
100
AcDbLine
 10
4808.74874868412
 20
-4493.212813820614
 30
0.0
 11
4808.74874868412
 21
-4607.696796258646
 31
0.0
  0
LINE
  5
3E3E
330
3E24
100
AcDbEntity
  8
0
 62
     0
370
    -2
100
AcDbLine
 10
5806.24874868412
 20
-4606.446796258647
 30
0.0
 11
4811.24874868412
 21
-4606.446796258646
 31
0.0
  0
SOLID
  5
3E3F
330
3E24
100
AcDbEntity
  8
0
 62
     0
100
AcDbTrace
 10
5806.24874868412
 20
-4606.03012959198
 30
0.0
 11
5806.24874868412
 21
-4606.863462925313
 31
0.0
 12
5808.74874868412
 22
-4606.446796258647
 32
0.0
 13
5808.74874868412
 23
-4606.446796258647
 33
0.0
  0
SOLID
  5
3E40
330
3E24
100
AcDbEntity
  8
0
 62
     0
100
AcDbTrace
 10
4811.24874868412
 20
-4606.030129591979
 30
0.0
 11
4811.24874868412
 21
-4606.863462925313
 31
0.0
 12
4808.74874868412
 22
-4606.446796258646
 32
0.0
 13
4808.74874868412
 23
-4606.446796258646
 33
0.0
  0
MTEXT
  5
3E41
330
3E24
100
AcDbEntity
  8
0
 62
     0
100
AcDbMText
 10
5308.74874868412
 20
-4561.446796258645
 30
0.0
 40
70.0
 41
0.0
 71
     5
 72
     1
  1
1 м
 73
     1
 44
1.0
  0
POINT
  5
3E42
330
3E24
100
AcDbEntity
  8
DEFPOINTS
 62
     0
100
AcDbPoint
 10
5808.74874868412
 20
-4492.587813820614
 30
0.0
  0
POINT
  5
3E43
330
3E24
100
AcDbEntity
  8
DEFPOINTS
 62
     0
100
AcDbPoint
 10
4808.74874868412
 20
-4492.587813820613
 30
0.0
  0
POINT
  5
3E44
330
3E24
100
AcDbEntity
  8
DEFPOINTS
 62
     0
100
AcDbPoint
 10
4808.74874868412
 20
-4606.446796258646
 30
0.0
  0
ENDBLK
  5
3E26
330
3E24
100
AcDbEntity
  8
0
100
AcDbBlockEnd
  0
BLOCK
  5
3E31
330
3E30
100
AcDbEntity
  8
0
100
AcDbBlockBegin
  2
*D81
 70
     1
 10
0.0
 20
0.0
 30
0.0
  3
*D81
  1

  0
LINE
  5
3E33
330
3E30
100
AcDbEntity
  8
0
 62
     0
370
    -2
100
AcDbLine
 10
5809.373748684119
 20
-3493.212813820614
 30
0.0
 11
5923.857731122152
 21
-3493.212813820614
 31
0.0
  0
LINE
  5
3E34
330
3E30
100
AcDbEntity
  8
0
 62
     0
370
    -2
100
AcDbLine
 10
5809.373748684119
 20
-4493.212813820614
 30
0.0
 11
5923.857731122152
 21
-4493.212813820614
 31
0.0
  0
LINE
  5
3E35
330
3E30
100
AcDbEntity
  8
0
 62
     0
370
    -2
100
AcDbLine
 10
5922.607731122152
 20
-3495.712813820614
 30
0.0
 11
5922.607731122152
 21
-4490.712813820613
 31
0.0
  0
SOLID
  5
3E36
330
3E30
100
AcDbEntity
  8
0
 62
     0
100
AcDbTrace
 10
5922.191064455486
 20
-3495.712813820614
 30
0.0
 11
5923.024397788819
 21
-3495.712813820614
 31
0.0
 12
5922.607731122152
 22
-3493.212813820614
 32
0.0
 13
5922.607731122152
 23
-3493.212813820614
 33
0.0
  0
SOLID
  5
3E37
330
3E30
100
AcDbEntity
  8
0
 62
     0
100
AcDbTrace
 10
5922.191064455486
 20
-4490.712813820613
 30
0.0
 11
5923.024397788819
 21
-4490.712813820613
 31
0.0
 12
5922.607731122152
 22
-4493.212813820614
 32
0.0
 13
5922.607731122152
 23
-4493.212813820614
 33
0.0
  0
MTEXT
  5
3E38
330
3E30
100
AcDbEntity
  8
0
 62
     0
100
AcDbMText
 10
5877.607731122154
 20
-3993.212813820613
 30
0.0
 40
70.0
 41
0.0
 71
     5
 72
     1
  1
1 м
 11
0.0000000000000001
 21
1.0
 31
0.0
 73
     1
 44
1.0
  0
POINT
  5
3E39
330
3E30
100
AcDbEntity
  8
DEFPOINTS
 62
     0
100
AcDbPoint
 10
5808.74874868412
 20
-3493.212813820614
 30
0.0
  0
POINT
  5
3E3A
330
3E30
100
AcDbEntity
  8
DEFPOINTS
 62
     0
100
AcDbPoint
 10
5808.74874868412
 20
-4493.212813820614
 30
0.0
  0
POINT
  5
3E3B
330
3E30
100
AcDbEntity
  8
DEFPOINTS
 62
     0
100
AcDbPoint
 10
5922.607731122152
 20
-4493.212813820614
 30
0.0
  0
ENDBLK
  5
3E32
330
3E30
100
AcDbEntity
  8
0
100
AcDbBlockEnd
  0
ENDSEC
  0
SECTION
  2
ENTITIES
  0
LINE
  5
3F1A
330
1F
100
AcDbEntity
  8
0
100
AcDbLine
 10
6999.944553026081
 20
-4824.669174149672
 30
0.0
 11
6999.944553026081
 21
-3009.338062505533
 31
0.0
  0
LINE
  5
3F1B
330
1F
100
AcDbEntity
  8
0
100
AcDbLine
 10
6999.944553026081
 20
-3009.338062505533
 30
0.0
 11
7999.944553026081
 21
-3009.338062505533
 31
0.0
  0
LINE
  5
3F1C
330
1F
100
AcDbEntity
  8
0
100
AcDbLine
 10
7999.944553026081
 20
-3009.338062505533
 30
0.0
 11
7999.944553026081
 21
-2809.338062505533
 31
0.0
  0
LINE
  5
3F1D
330
1F
100
AcDbEntity
  8
0
100
AcDbLine
 10
7999.944553026081
 20
-2809.338062505533
 30
0.0
 11
9553.393170269982
 21
-2809.338062505533
 31
0.0
  0
LWPOLYLINE
  5
3F1E
330
1F
100
AcDbEntity
  8
0
100
AcDbPolyline
 90
        4
 70
     1
 43
0.0
 10
7038.997055075252
 20
-3140.717760519801
 10
7307.817168098697
 20
-3140.717760519801
 10
7307.817168098697
 20
-3476.590844130046
 10
7038.997055075252
 20
-3476.590844130046
  0
LWPOLYLINE
  5
3F1F
330
1F
100
AcDbEntity
  8
0
  6
HIDDEN2
 48
30.0
100
AcDbPolyline
 90
        4
 70
     1
 43
0.0
 10
7048.767590269028
 20
-3648.555007888292
 10
7317.587703292473
 20
-3648.555007888292
 10
7317.587703292473
 20
-3984.428091498536
 10
7048.767590269028
 20
-3984.428091498536
  0
CIRCLE
  5
3F20
330
1F
100
AcDbEntity
  8
0
100
AcDbCircle
 10
7236.061812647855
 20
-3711.56322362605
 30
0.0
 40
28.70102415900318
  0
CIRCLE
  5
3F21
330
1F
100
AcDbEntity
  8
0
100
AcDbCircle
 10
7236.061812647855
 20
-3912.566198016815
 30
0.0
 40
28.70102415900318
  0
CIRCLE
  5
3F22
330
1F
100
AcDbEntity
  8
0
100
AcDbCircle
 10
7125.16440059753
 20
-3711.56322362605
 30
0.0
 40
28.70102415900318
  0
CIRCLE
  5
3F23
330
1F
100
AcDbEntity
  8
0
100
AcDbCircle
 10
7125.16440059753
 20
-3912.566198016815
 30
0.0
 40
28.70102415900318
  0
LWPOLYLINE
  5
3F24
330
1F
100
AcDbEntity
  8
0
100
AcDbPolyline
 90
        4
 70
     1
 43
0.0
 10
7044.046642808502
 20
-3303.218587542528
 10
7104.079167788931
 20
-3303.218587542528
 10
7104.079167788931
 20
-3314.497788179971
 10
7044.046642808502
 20
-3314.497788179971
  0
LWPOLYLINE
  5
3F25
330
1F
100
AcDbEntity
  8
0
100
AcDbPolyline
 90
        4
 70
     1
 43
0.0
 10
7044.046642808502
 20
-3303.218587542528
 10
7063.723342507015
 20
-3303.218587542528
 10
7063.723342507015
 20
-3283.541887844015
 10
7044.046642808502
 20
-3283.541887844015
  0
LWPOLYLINE
  5
3F26
330
1F
100
AcDbEntity
  8
0
100
AcDbPolyline
 90
        4
 70
     1
 43
0.0
 10
7044.046642808502
 20
-3314.497788179971
 10
7063.723342507015
 20
-3314.497788179971
 10
7063.723342507015
 20
-3334.174487878485
 10
7044.046642808502
 20
-3334.174487878485
  0
LWPOLYLINE
  5
3F27
330
1F
100
AcDbEntity
  8
0
100
AcDbPolyline
 90
        6
 70
     0
 43
0.0
 10
7077.177418615062
 20
-3303.218587542528
 10
7077.177418615062
 20
-3165.171623828344
 10
7286.784008251631
 20
-3165.171623828344
 10
7286.784008251631
 20
-3457.983196094414
 10
7077.177418615062
 20
-3457.983196094414
 10
7077.177418615062
 20
-3314.497788179971
  0
CIRCLE
  5
3F28
330
1F
100
AcDbEntity
  8
0
100
AcDbCircle
 10
7127.801456838334
 20
-3308.858187861249
 30
0.0
 40
19.23062881680875
  0
LINE
  5
3F29
330
1F
100
AcDbEntity
  8
0
 62
     4
100
AcDbLine
 10
8817.170075909551
 20
-2859.777890129161
 30
0.0
 11
8848.523704801426
 21
-2859.777890129161
 31
0.0
  0
LWPOLYLINE
  5
3F2A
330
1F
100
AcDbEntity
  8
0
 48
30.0
100
AcDbPolyline
 90
        4
 70
     1
 43
0.0
 10
8973.607435933063
 20
-2899.811087499638
 10
8973.607435933063
 20
-3168.631200523083
 10
8637.734352322819
 20
-3168.631200523083
 10
8637.734352322819
 20
-2899.811087499638
  0
CIRCLE
  5
3F2B
330
1F
100
AcDbEntity
  8
0
100
AcDbCircle
 10
8910.599220195306
 20
-3087.105309878465
 30
0.0
 40
28.70102415900318
  0
CIRCLE
  5
3F2C
330
1F
100
AcDbEntity
  8
0
100
AcDbCircle
 10
8709.596245804538
 20
-3087.105309878465
 30
0.0
 40
28.70102415900318
  0
CIRCLE
  5
3F2D
330
1F
100
AcDbEntity
  8
0
100
AcDbCircle
 10
8910.599220195306
 20
-2976.207897828139
 30
0.0
 40
28.70102415900318
  0
CIRCLE
  5
3F2E
330
1F
100
AcDbEntity
  8
0
100
AcDbCircle
 10
8709.596245804538
 20
-2976.207897828139
 30
0.0
 40
28.70102415900318
  0
LINE
  5
3F2F
330
1F
100
AcDbEntity
  8
0
 62
     4
100
AcDbLine
 10
8817.170075909551
 20
-2859.777890129161
 30
0.0
 11
8817.170075909551
 21
-2899.811087499638
 31
0.0
  0
LINE
  5
3F30
330
1F
100
AcDbEntity
  8
0
 62
     4
100
AcDbLine
 10
8848.523704801424
 20
-2846.782855560394
 30
0.0
 11
8848.523704801424
 21
-2871.600779699044
 31
0.0
  0
LINE
  5
3F31
330
1F
100
AcDbEntity
  8
0
 62
     4
100
AcDbLine
 10
8848.523704801424
 20
-2871.600779699044
 30
0.0
 11
8887.632305217122
 21
-2849.021418721412
 31
0.0
  0
LINE
  5
3F32
330
1F
100
AcDbEntity
  8
0
 62
     4
100
AcDbLine
 10
8887.632305217122
 20
-2849.021418721412
 30
0.0
 11
8887.632305217122
 21
-2871.600779699043
 31
0.0
  0
LINE
  5
3F33
330
1F
100
AcDbEntity
  8
0
 62
     4
100
AcDbLine
 10
8887.632305217122
 20
-2871.600779699043
 30
0.0
 11
8848.523704801424
 21
-2846.782855560394
 31
0.0
  0
LINE
  5
3F34
330
1F
100
AcDbEntity
  8
0
 62
     4
100
AcDbLine
 10
8887.632305217122
 20
-2859.777890129161
 30
0.0
 11
9551.924123019951
 21
-2859.777890129161
 31
0.0
  0
ARC
  5
3F35
330
1F
100
AcDbEntity
  8
0
  6
HIDDEN2
 62
     1
 48
30.0
100
AcDbCircle
 10
7519.38220830114
 20
-2247.063357594864
 30
0.0
 40
1582.3482146498
100
AcDbArc
 50
262.6732025874604
 51
324.3801093357565
  0
LINE
  5
3F36
330
1F
100
AcDbEntity
  8
0
 62
     1
100
AcDbLine
 10
7317.587703292473
 20
-3816.491549693412
 30
0.0
 11
7414.957036229563
 21
-3811.73461937665
 31
0.0
  0
LINE
  5
3F37
330
1F
100
AcDbEntity
  8
0
 62
     1
100
AcDbLine
 10
7317.587703292473
 20
-3816.491549693413
 30
0.0
 11
7414.963594192744
 21
-3846.8261910119
 31
0.0
  0
LINE
  5
3F38
330
1F
100
AcDbEntity
  8
0
 62
     1
100
AcDbLine
 10
8805.67089412794
 20
-3168.631200523084
 30
0.0
 11
8751.03270295836
 21
-3216.37492931469
 31
0.0
  0
LINE
  5
3F39
330
1F
100
AcDbEntity
  8
0
 62
     1
100
AcDbLine
 10
8805.67089412794
 20
-3168.631200523084
 30
0.0
 11
8777.438436654465
 21
-3236.830136122688
 31
0.0
  0
LINE
  5
3F3A
330
1F
100
AcDbEntity
  8
0
  6
HIDDEN2
 62
     4
 48
30.0
100
AcDbLine
 10
8817.170075909551
 20
-2859.777890129161
 30
0.0
 11
8037.606227039161
 21
-2859.777890129149
 31
0.0
  0
LINE
  5
3F3B
330
1F
100
AcDbEntity
  8
0
  6
HIDDEN2
 62
     4
 48
30.0
100
AcDbLine
 10
8037.606227039161
 20
-2859.777890129149
 30
0.0
 11
8037.606227039161
 21
-3046.764492893166
 31
0.0
  0
LINE
  5
3F3C
330
1F
100
AcDbEntity
  8
0
  6
HIDDEN2
 62
     4
 48
30.0
100
AcDbLine
 10
8037.606227039161
 20
-3046.764492893166
 30
0.0
 11
7011.996753337863
 21
-3046.764492893166
 31
0.0
  0
LINE
  5
3F3D
330
1F
100
AcDbEntity
  8
0
  6
HIDDEN2
 62
     4
 48
30.0
100
AcDbLine
 10
7011.996753337863
 20
-3046.764492893166
 30
0.0
 11
7011.996753337863
 21
-3821.216834585707
 31
0.0
  0
LINE
  5
3F3E
330
1F
100
AcDbEntity
  8
0
  6
HIDDEN2
 62
     4
 48
30.0
100
AcDbLine
 10
7011.996753337863
 20
-3821.216834585707
 30
0.0
 11
7048.767590269028
 21
-3821.216834585707
 31
0.0
  0
LINE
  5
3F3F
330
1F
100
AcDbEntity
  8
0
100
AcDbLine
 10
6955.448070597424
 20
-4129.99170388373
 30
0.0
 11
7045.346886114912
 21
-4129.99170388373
 31
0.0
  0
LINE
  5
3F40
330
1F
100
AcDbEntity
  8
0
100
AcDbLine
 10
6954.995145267338
 20
-4763.491448433458
 30
0.0
 11
7044.893960784825
 21
-4763.491448433458
 31
0.0
  0
MTEXT
  5
3F42
330
1F
100
AcDbEntity
  8
0
 62
     1
100
AcDbMText
 10
8074.256381158116
 20
-3526.8017293267
 30
0.0
 40
100.0
 41
173.7338956722924
 71
     1
 72
     5
  1
2м
 73
     1
 44
1.0
  0
SPLINE
  5
3F43
330
1F
100
AcDbEntity
  8
0
100
AcDbSpline
210
0.0
220
0.0
230
1.0
 70
     8
 71
     3
 72
    10
 73
     6
 74
     4
 42
0.0000000001
 43
0.0000000001
 44
0.0000000001
 40
0.0
 40
0.0
 40
0.0
 40
0.0
 40
47.38228494733569
 40
85.42319190546042
 40
141.1227355410976
 40
141.1227355410976
 40
141.1227355410976
 40
141.1227355410976
 10
6945.505539597234
 20
-4830.585374199953
 30
0.0
 10
6960.256981812979
 20
-4814.935888489952
 30
0.0
 10
6986.851631705413
 20
-4786.722200135474
 30
0.0
 10
7009.54159086103
 20
-4858.377240149482
 30
0.0
 10
7037.62553606966
 20
-4824.114850688303
 30
0.0
 10
7054.312707100955
 20
-4803.75651610845
 30
0.0
 11
6945.505539597234
 21
-4830.585374199953
 31
0.0
 11
6985.803223906913
 21
-4805.66194012461
 31
0.0
 11
7008.84528586074
 21
-4835.930306170908
 31
0.0
 11
7054.312707100955
 21
-4803.75651610845
 31
0.0
  0
SPLINE
  5
3F45
330
1F
100
AcDbEntity
  8
0
100
AcDbSpline
210
0.0
220
0.0
230
1.0
 70
     8
 71
     3
 72
    10
 73
     6
 74
     4
 42
0.0000000001
 43
0.0000000001
 44
0.0000000001
 40
0.0
 40
0.0
 40
0.0
 40
0.0
 40
47.38228494733569
 40
85.42319190546042
 40
141.1227355410976
 40
141.1227355410976
 40
141.1227355410976
 40
141.1227355410976
 10
9550.811250888896
 20
-2788.226744308893
 30
0.0
 10
9566.460736598896
 20
-2802.978186524639
 30
0.0
 10
9594.674424953373
 20
-2829.572836417072
 30
0.0
 10
9523.019384939365
 20
-2852.26279557269
 30
0.0
 10
9557.281774400545
 20
-2880.346740781319
 30
0.0
 10
9577.640108980398
 20
-2897.033911812614
 30
0.0
 11
9550.811250888896
 21
-2788.226744308893
 31
0.0
 11
9575.734684964238
 21
-2828.524428618571
 31
0.0
 11
9545.466318917942
 21
-2851.566490572399
 31
0.0
 11
9577.640108980398
 21
-2897.033911812614
 31
0.0
  0
LINE
  5
3F46
330
1F
100
AcDbEntity
  8
0
  6
HIDDEN2
 62
     4
 48
30.0
100
AcDbLine
 10
7285.876090480318
 20
-4960.288370123075
 30
0.0
 11
6993.182090124236
 21
-4960.288370123075
 31
0.0
  0
MTEXT
  5
3F47
330
1F
100
AcDbEntity
  8
0
100
AcDbMText
 10
7481.962283718491
 20
-4906.642018089446
 30
0.0
 40
100.0
 41
2197.794103348275
 71
     1
 72
     5
  1
планируемый газопровод
 73
     1
 44
1.0
  0
LINE
  5
3F48
330
1F
100
AcDbEntity
  8
0
 62
     4
 48
30.0
100
AcDbLine
 10
7288.452835713714
 20
-5145.72988503745
 30
0.0
 11
6995.758835357633
 21
-5145.72988503745
 31
0.0
  0
MTEXT
  5
3F49
330
1F
100
AcDbEntity
  8
0
100
AcDbMText
 10
7484.539028951887
 20
-5092.083533003821
 30
0.0
 40
100.0
 41
2349.365179758828
 71
     1
 72
     5
  1
существующий газопровод
 73
     1
 44
1.0
  0
ENDSEC
  0
SECTION
  2
OBJECTS
  0
DICTIONARY
  5
C
330
0
100
AcDbDictionary
281
     1
  3
ACAD_COLOR
350
6B
  3
ACAD_GROUP
350
D
  3
ACAD_LAYOUT
350
1A
  3
ACAD_MATERIAL
350
6A
  3
ACAD_MLEADERSTYLE
350
630
  3
ACAD_MLINESTYLE
350
17
  3
ACAD_PLOTSETTINGS
350
19
  3
ACAD_PLOTSTYLENAME
350
E
  3
ACAD_SCALELIST
350
61E
  3
ACAD_TABLESTYLE
350
7E
  3
ACAD_VISUALSTYLE
350
EF
  3
ACDB_RECOMPOSE_DATA
350
7D6
  3
AcDbVariableDictionary
350
5E
  3
AEC_CLASSIFICATION_SYSTEM_DEFS
350
D87
  3
AEC_PROPERTY_SET_DEFS
350
D88
  0
DICTIONARY
  5
15C
330
2
100
AcDbDictionary
280
     1
281
     1
  3
ACAD_LAYERFILTERS
360
B92
  3
ACAD_LAYERSTATES
360
19D
  3
ACLYDICTIONARY
360
B91
  0
DICTIONARY
  5
7C2
330
10
100
AcDbDictionary
280
     1
281
     1
  3
ADSK_XREC_LAYER_RECONCILED
360
7C3
  0
DICTIONARY
  5
7C4
330
156
100
AcDbDictionary
280
     1
281
     1
  3
ADSK_XREC_LAYER_RECONCILED
360
7C5
  0
DICTIONARY
  5
7C6
330
158
100
AcDbDictionary
280
     1
281
     1
  3
ADSK_XREC_LAYER_RECONCILED
360
7C7
  0
DICTIONARY
  5
7C8
330
159
100
AcDbDictionary
280
     1
281
     1
  3
ADSK_XREC_LAYER_RECONCILED
360
7C9
  0
DICTIONARY
  5
7CA
330
15F
100
AcDbDictionary
280
     1
281
     1
  3
ADSK_XREC_LAYER_RECONCILED
360
7CB
  0
DICTIONARY
  5
7CC
330
194
100
AcDbDictionary
280
     1
281
     1
  3
ADSK_XREC_LAYER_RECONCILED
360
7CD
  0
DICTIONARY
  5
7CE
330
1B1
100
AcDbDictionary
280
     1
281
     1
  3
ADSK_XREC_LAYER_RECONCILED
360
7CF
  0
DICTIONARY
  5
7D0
330
1B4
100
AcDbDictionary
280
     1
281
     1
  3
ADSK_XREC_LAYER_RECONCILED
360
7D1
  0
DICTIONARY
  5
7D2
330
1CD
100
AcDbDictionary
280
     1
281
     1
  3
ADSK_XREC_LAYER_RECONCILED
360
7D3
  0
DICTIONARY
  5
12F
330
1F
100
AcDbDictionary
280
     1
281
     1
  3
ACAD_SORTENTS
360
130
  0
DICTIONARY
  5
187
330
186
100
AcDbDictionary
280
     1
281
     1
  3
ACAD_SORTENTS
360
188
  0
DICTIONARY
  5
18D
330
18C
100
AcDbDictionary
280
     1
281
     1
  3
ACAD_SORTENTS
360
18E
  0
DICTIONARY
  5
1E6F
330
1E6B
100
AcDbDictionary
280
     1
281
     1
  3
ACAD_SORTENTS
360
1E70
  0
DICTIONARY
  5
6B
102
{ACAD_REACTORS
330
C
102
}
330
C
100
AcDbDictionary
281
     1
  0
DICTIONARY
  5
D
102
{ACAD_REACTORS
330
C
102
}
330
C
100
AcDbDictionary
281
     1
  0
DICTIONARY
  5
1A
102
{ACAD_REACTORS
330
C
102
}
330
C
100
AcDbDictionary
281
     1
  3
Layout1
350
D3
  3
Layout2
350
D7
  3
Model
350
22
  0
DICTIONARY
  5
6A
102
{ACAD_REACTORS
330
C
102
}
330
C
100
AcDbDictionary
281
     1
  3
ByBlock
350
ED
  3
ByLayer
350
EC
  3
Global
350
EE
  0
DICTIONARY
  5
630
102
{ACAD_REACTORS
330
C
102
}
330
C
100
AcDbDictionary
281
     1
  3
Standard
350
631
  0
DICTIONARY
  5
17
102
{ACAD_REACTORS
330
C
102
}
330
C
100
AcDbDictionary
281
     1
  3
Standard
350
18
  3
VOZ
350
105E
  0
DICTIONARY
  5
19
102
{ACAD_REACTORS
330
C
102
}
330
C
100
AcDbDictionary
281
     1
  0
ACDBDICTIONARYWDFLT
  5
E
102
{ACAD_REACTORS
330
C
102
}
330
C
100
AcDbDictionary
281
     1
  3
Normal
350
F
100
AcDbDictionaryWithDefault
340
F
  0
DICTIONARY
  5
61E
102
{ACAD_REACTORS
330
C
102
}
330
C
100
AcDbDictionary
281
     1
  3
A0
350
61F
  3
A1
350
620
  3
A2
350
621
  3
A3
350
622
  3
A4
350
623
  3
A5
350
624
  3
A6
350
625
  3
A7
350
626
  3
A8
350
627
  3
A9
350
628
  3
B0
350
629
  3
B1
350
62A
  3
B2
350
62B
  3
B3
350
62C
  3
B4
350
62D
  3
B5
350
62E
  3
B6
350
62F
  0
DICTIONARY
  5
7E
102
{ACAD_REACTORS
330
C
102
}
330
C
100
AcDbDictionary
281
     1
  3
Standard
350
7F
  0
DICTIONARY
  5
EF
102
{ACAD_REACTORS
330
C
102
}
330
C
100
AcDbDictionary
281
     1
  3
2dWireframe
350
F5
  3
3D Hidden
350
F7
  3
3dWireframe
350
F6
  3
Basic
350
F4
  3
Brighten
350
FB
  3
ColorChange
350
FF
  3
Conceptual
350
F8
  3
Dim
350
FA
  3
Facepattern
350
FE
  3
Flat
350
F0
  3
FlatWithEdges
350
F1
  3
Gouraud
350
F2
  3
GouraudWithEdges
350
F3
  3
Linepattern
350
FD
  3
Realistic
350
F9
  3
Thicken
350
FC
  0
XRECORD
  5
7D6
102
{ACAD_REACTORS
330
C
102
}
330
C
100
AcDbXrecord
280
     1
 90
        1
330
7F
  0
DICTIONARY
  5
5E
102
{ACAD_REACTORS
330
C
102
}
330
C
100
AcDbDictionary
281
     1
  3
CANNOSCALE
350
7D9
  3
CMLEADERSTYLE
350
7D7
  3
CTABLESTYLE
350
84
  3
DIMASSOC
350
5F
  3
HIDETEXT
350
63
  3
LAYEREVAL
350
7DB
  3
LAYERNOTIFY
350
7DC
  3
LIGHTINGUNITS
350
7DA
  3
MSLTSCALE
350
7D8
  3
PSOLHEIGHT
350
3F4F
  3
PSOLWIDTH
350
3F4E
  0
DICTIONARY
  5
D87
102
{ACAD_REACTORS
330
C
102
}
330
C
100
AcDbDictionary
281
     1
  0
DICTIONARY
  5
D88
102
{ACAD_REACTORS
330
C
102
}
330
C
100
AcDbDictionary
281
     1
  0
DICTIONARY
  5
B92
102
{ACAD_REACTORS
330
15C
102
}
330
15C
100
AcDbDictionary
281
     1
  0
DICTIONARY
  5
19D
102
{ACAD_REACTORS
330
15C
102
}
330
15C
100
AcDbDictionary
281
     1
  0
DICTIONARY
  5
B91
102
{ACAD_REACTORS
330
15C
102
}
330
15C
100
AcDbDictionary
281
     1
1001
ACAD
1000
<All
  0
XRECORD
  5
7C3
102
{ACAD_REACTORS
330
7C2
102
}
330
7C2
100
AcDbXrecord
280
     1
290
     1
  0
XRECORD
  5
7C5
102
{ACAD_REACTORS
330
7C4
102
}
330
7C4
100
AcDbXrecord
280
     1
290
     1
  0
XRECORD
  5
7C7
102
{ACAD_REACTORS
330
7C6
102
}
330
7C6
100
AcDbXrecord
280
     1
290
     1
  0
XRECORD
  5
7C9
102
{ACAD_REACTORS
330
7C8
102
}
330
7C8
100
AcDbXrecord
280
     1
290
     1
  0
XRECORD
  5
7CB
102
{ACAD_REACTORS
330
7CA
102
}
330
7CA
100
AcDbXrecord
280
     1
290
     1
  0
XRECORD
  5
7CD
102
{ACAD_REACTORS
330
7CC
102
}
330
7CC
100
AcDbXrecord
280
     1
290
     1
  0
XRECORD
  5
7CF
102
{ACAD_REACTORS
330
7CE
102
}
330
7CE
100
AcDbXrecord
280
     1
290
     1
  0
XRECORD
  5
7D1
102
{ACAD_REACTORS
330
7D0
102
}
330
7D0
100
AcDbXrecord
280
     1
290
     1
  0
XRECORD
  5
7D3
102
{ACAD_REACTORS
330
7D2
102
}
330
7D2
100
AcDbXrecord
280
     1
290
     1
  0
SORTENTSTABLE
  5
130
102
{ACAD_REACTORS
330
12F
102
}
330
12F
100
AcDbSortentsTable
330
1F
331
3F22
  5
3F22
331
3F2B
  5
3F2C
331
3F34
  5
3F2A
331
3F21
  5
3F21
331
3F2A
  5
3F2B
331
3F33
  5
3F34
331
3F1F
  5
3F1F
331
3F20
  5
3F20
331
3F29
  5
3F29
331
3F32
  5
3F33
331
3F1E
  5
3F1E
331
3F28
  5
3F28
331
3F31
  5
3F32
331
3F1D
  5
3F1D
331
3F27
  5
3F27
331
3F30
  5
3F31
331
3F1C
  5
3F1C
331
3F26
  5
3F26
331
3F2F
  5
3F30
331
3F1B
  5
3F1B
331
3F25
  5
3F25
331
3F2E
  5
3F2F
331
3F1A
  5
3F1A
331
3F24
  5
3F24
331
3F2D
  5
3F2E
331
3F23
  5
3F23
331
3F2C
  5
3F2D
  0
SORTENTSTABLE
  5
188
102
{ACAD_REACTORS
330
187
102
}
330
187
100
AcDbSortentsTable
330
186
  0
SORTENTSTABLE
  5
18E
102
{ACAD_REACTORS
330
18D
102
}
330
18D
100
AcDbSortentsTable
330
18C
  0
SORTENTSTABLE
  5
1E70
102
{ACAD_REACTORS
330
1E6F
102
}
330
1E6F
100
AcDbSortentsTable
330
1E6B
  0
LAYOUT
  5
D3
102
{ACAD_REACTORS
330
1A
102
}
330
1A
100
AcDbPlotSettings
  1

  2
C:\Documents and Settings\basas\Application Data\Autodesk\AutoCAD 2005\R16.1\enu\plotters\Default Windows System Printer.pc3
  4

  6

 40
0.0
 41
0.0
 42
0.0
 43
0.0
 44
0.0
 45
0.0
 46
0.0
 47
0.0
 48
0.0
 49
0.0
140
0.0
141
0.0
142
1.0
143
1.0
 70
   688
 72
     0
 73
     0
 74
     5
  7
acad.ctb
 75
    16
147
1.0
 76
     0
 77
     2
 78
   300
148
0.0
149
0.0
100
AcDbLayout
  1
Layout1
 70
     1
 71
     1
 10
0.0
 20
0.0
 11
12.0
 21
9.0
 12
0.0
 22
0.0
 32
0.0
 14
0.0
 24
0.0
 34
0.0
 15
0.0
 25
0.0
 35
0.0
146
0.0
 13
0.0
 23
0.0
 33
0.0
 16
1.0
 26
0.0
 36
0.0
 17
0.0
 27
1.0
 37
0.0
 76
     0
330
D2
  0
LAYOUT
  5
D7
102
{ACAD_REACTORS
330
1A
102
}
330
1A
100
AcDbPlotSettings
  1

  2
C:\Documents and Settings\basas\Application Data\Autodesk\AutoCAD 2005\R16.1\enu\plotters\Default Windows System Printer.pc3
  4

  6

 40
0.0
 41
0.0
 42
0.0
 43
0.0
 44
0.0
 45
0.0
 46
0.0
 47
0.0
 48
0.0
 49
0.0
140
0.0
141
0.0
142
1.0
143
1.0
 70
   688
 72
     0
 73
     0
 74
     5
  7
acad.ctb
 75
    16
147
1.0
 76
     0
 77
     2
 78
   300
148
0.0
149
0.0
100
AcDbLayout
  1
Layout2
 70
     1
 71
     2
 10
0.0
 20
0.0
 11
12.0
 21
9.0
 12
0.0
 22
0.0
 32
0.0
 14
0.0
 24
0.0
 34
0.0
 15
0.0
 25
0.0
 35
0.0
146
0.0
 13
0.0
 23
0.0
 33
0.0
 16
1.0
 26
0.0
 36
0.0
 17
0.0
 27
1.0
 37
0.0
 76
     0
330
D6
  0
LAYOUT
  5
22
102
{ACAD_REACTORS
330
1A
102
}
330
1A
100
AcDbPlotSettings
  1

  2
\\srvspb\Hp_5200_Ps
  4
A4
  6

 40
5.027082920074462
 41
5.069430828094482
 42
5.365737915039062
 43
5.365753173828125
 44
209.8886566162109
 45
297.0530090332031
 46
0.0
 47
7.860332323782557
 48
0.0
 49
0.0
140
0.0
141
0.0
142
1.0
143
34.35861345762479
 70
 11956
 72
     1
 73
     1
 74
     0
  7
acad.ctb
 75
     0
147
0.0291047833240803
 76
     0
 77
     2
 78
   300
148
3654.763130273074
149
1962.871695991562
100
AcDbLayout
  1
Model
 70
     1
 71
     0
 10
0.0
 20
0.0
 11
12.0
 21
9.0
 12
0.0
 22
0.0
 32
0.0
 14
0.0
 24
0.0
 34
0.0
 15
0.0
 25
0.0
 35
0.0
146
0.0
 13
0.0
 23
0.0
 33
0.0
 16
1.0
 26
0.0
 36
0.0
 17
0.0
 27
1.0
 37
0.0
 76
     0
330
1F
331
EA
1001
ACAD_PSEXT
1000
\\srvspb\Hp_5200_Ps
1000
HP LaserJet 5200 PS
1000
пом. 421
1000
Черно-Белый
1070
     0
  0
MATERIAL
  5
ED
102
{ACAD_XDICTIONARY
360
3F54
102
}
102
{ACAD_REACTORS
330
6A
102
}
330
6A
100
AcDbMaterial
  1
ByBlock
 73
     1
 78
     1
172
     1
176
     1
270
     1
274
     1
  0
MATERIAL
  5
EC
102
{ACAD_XDICTIONARY
360
3F52
102
}
102
{ACAD_REACTORS
330
6A
102
}
330
6A
100
AcDbMaterial
  1
ByLayer
 73
     1
 78
     1
172
     1
176
     1
270
     1
274
     1
  0
MATERIAL
  5
EE
102
{ACAD_XDICTIONARY
360
3F56
102
}
102
{ACAD_REACTORS
330
6A
102
}
330
6A
100
AcDbMaterial
  1
Global
 73
     1
 78
     1
172
     1
176
     1
270
     1
274
     1
  0
MLEADERSTYLE
  5
631
102
{ACAD_REACTORS
330
630
102
}
330
630
100
AcDbMLeaderStyle
170
     2
171
     1
172
     0
 90
        2
 40
0.0
 41
0.0
173
     1
 91
-1056964608
340
14
 92
       -2
290
     1
 42
2.0
291
     1
 43
0.36
  3
Standard
 44
4.0
300

342
11
174
     1
178
     6
175
     1
176
     0
 93
-1056964608
 45
4.0
292
     0
297
     0
 46
4.0
 94
-1056964608
 47
1.0
 49
1.0
140
1.0
293
     1
141
0.0
294
     1
177
     0
142
1.0
295
     0
296
     0
143
0.125
1001
ACAD_MLEADERVER
1070
     2
  0
MLINESTYLE
  5
18
102
{ACAD_REACTORS
330
17
102
}
330
17
100
AcDbMlineStyle
  2
STANDARD
 70
     0
  3

 62
   256
 51
90.0
 52
90.0
 71
     2
 49
0.5
 62
   256
  6
BYLAYER
 49
-0.5
 62
   256
  6
BYLAYER
  0
MLINESTYLE
  5
105E
102
{ACAD_REACTORS
330
17
102
}
330
17
100
AcDbMlineStyle
  2
VOZ
 70
   272
  3

 62
     0
 51
90.0
 52
90.0
 71
     3
 49
0.5
 62
   256
  6
BYLAYER
 49
0.0
 62
     3
  6
CENTER2
 49
-0.5
 62
   256
  6
BYLAYER
  0
ACDBPLACEHOLDER
  5
F
102
{ACAD_REACTORS
330
E
102
}
330
E
  0
SCALE
  5
61F
102
{ACAD_REACTORS
330
61E
102
}
330
61E
100
AcDbScale
 70
     0
300
1:1
140
1.0
141
1.0
290
     1
  0
SCALE
  5
620
102
{ACAD_REACTORS
330
61E
102
}
330
61E
100
AcDbScale
 70
     0
300
1:2
140
1.0
141
2.0
290
     0
  0
SCALE
  5
621
102
{ACAD_REACTORS
330
61E
102
}
330
61E
100
AcDbScale
 70
     0
300
1:4
140
1.0
141
4.0
290
     0
  0
SCALE
  5
622
102
{ACAD_REACTORS
330
61E
102
}
330
61E
100
AcDbScale
 70
     0
300
1:5
140
1.0
141
5.0
290
     0
  0
SCALE
  5
623
102
{ACAD_REACTORS
330
61E
102
}
330
61E
100
AcDbScale
 70
     0
300
1:8
140
1.0
141
8.0
290
     0
  0
SCALE
  5
624
102
{ACAD_REACTORS
330
61E
102
}
330
61E
100
AcDbScale
 70
     0
300
1:10
140
1.0
141
10.0
290
     0
  0
SCALE
  5
625
102
{ACAD_REACTORS
330
61E
102
}
330
61E
100
AcDbScale
 70
     0
300
1:16
140
1.0
141
16.0
290
     0
  0
SCALE
  5
626
102
{ACAD_REACTORS
330
61E
102
}
330
61E
100
AcDbScale
 70
     0
300
1:20
140
1.0
141
20.0
290
     0
  0
SCALE
  5
627
102
{ACAD_REACTORS
330
61E
102
}
330
61E
100
AcDbScale
 70
     0
300
1:30
140
1.0
141
30.0
290
     0
  0
SCALE
  5
628
102
{ACAD_REACTORS
330
61E
102
}
330
61E
100
AcDbScale
 70
     0
300
1:40
140
1.0
141
40.0
290
     0
  0
SCALE
  5
629
102
{ACAD_REACTORS
330
61E
102
}
330
61E
100
AcDbScale
 70
     0
300
1:50
140
1.0
141
50.0
290
     0
  0
SCALE
  5
62A
102
{ACAD_REACTORS
330
61E
102
}
330
61E
100
AcDbScale
 70
     0
300
1:100
140
1.0
141
100.0
290
     0
  0
SCALE
  5
62B
102
{ACAD_REACTORS
330
61E
102
}
330
61E
100
AcDbScale
 70
     0
300
2:1
140
2.0
141
1.0
290
     0
  0
SCALE
  5
62C
102
{ACAD_REACTORS
330
61E
102
}
330
61E
100
AcDbScale
 70
     0
300
4:1
140
4.0
141
1.0
290
     0
  0
SCALE
  5
62D
102
{ACAD_REACTORS
330
61E
102
}
330
61E
100
AcDbScale
 70
     0
300
8:1
140
8.0
141
1.0
290
     0
  0
SCALE
  5
62E
102
{ACAD_REACTORS
330
61E
102
}
330
61E
100
AcDbScale
 70
     0
300
10:1
140
10.0
141
1.0
290
     0
  0
SCALE
  5
62F
102
{ACAD_REACTORS
330
61E
102
}
330
61E
100
AcDbScale
 70
     0
300
100:1
140
100.0
141
1.0
290
     0
  0
TABLESTYLE
  5
7F
102
{ACAD_XDICTIONARY
360
7D4
102
}
102
{ACAD_REACTORS
330
7E
102
}
330
7E
100
AcDbTableStyle
  3
Standard
 70
     0
 71
     0
 40
1.5
 41
1.5
280
     0
281
     0
  7
Standard
140
4.5
170
     2
 62
     0
 63
     7
283
     0
274
    -2
284
     1
 64
     0
275
    -2
285
     1
 65
     0
276
    -2
286
     1
 66
     0
277
    -2
287
     1
 67
     0
278
    -2
288
     1
 68
     0
279
    -2
289
     1
 69
     0
  7
Standard
140
6.0
170
     5
 62
     0
 63
     7
283
     0
274
    -2
284
     1
 64
     0
275
    -2
285
     1
 65
     0
276
    -2
286
     1
 66
     0
277
    -2
287
     1
 67
     0
278
    -2
288
     1
 68
     0
279
    -2
289
     1
 69
     0
  7
Standard
140
4.5
170
     5
 62
     0
 63
     7
283
     0
274
    -2
284
     1
 64
     0
275
    -2
285
     1
 65
     0
276
    -2
286
     1
 66
     0
277
    -2
287
     1
 67
     0
278
    -2
288
     1
 68
     0
279
    -2
289
     1
 69
     0
  0
VISUALSTYLE
  5
F5
102
{ACAD_REACTORS
330
EF
102
}
330
EF
100
AcDbVisualStyle
  2
2dWireframe
 70
     4
 71
     0
 72
     2
 73
     1
 90
        0
 40
-0.6
 41
-30.0
 62
     5
 63
     7
421
 16777215
 74
     1
 91
        4
 64
     7
 65
   257
 75
     1
175
     1
 42
1.0
 92
        0
 66
   257
 43
1.0
 76
     1
 77
     6
 78
     2
 67
     7
 79
     5
170
     0
171
     0
290
     0
174
     0
 93
        1
 44
0.0
173
     0
291
     0
 45
0.0
1001
ACAD
1000
AcDbSavedByObjectVersion
1070
     0
  0
VISUALSTYLE
  5
F7
102
{ACAD_REACTORS
330
EF
102
}
330
EF
100
AcDbVisualStyle
  2
3D Hidden
 70
     6
 71
     1
 72
     2
 73
     2
 90
        0
 40
-0.6
 41
-30.0
 62
     5
 63
     7
421
 16777215
 74
     2
 91
        2
 64
     7
 65
   257
 75
     2
175
     1
 42
40.0
 92
        0
 66
   257
 43
1.0
 76
     1
 77
     6
 78
     2
 67
     7
 79
     3
170
     0
171
     0
290
     0
174
     0
 93
        1
 44
0.0
173
     0
291
     0
 45
0.0
1001
ACAD
1000
AcDbSavedByObjectVersion
1070
     0
  0
VISUALSTYLE
  5
F6
102
{ACAD_REACTORS
330
EF
102
}
330
EF
100
AcDbVisualStyle
  2
3dWireframe
 70
     5
 71
     0
 72
     2
 73
     1
 90
        0
 40
-0.6
 41
-30.0
 62
     5
 63
     7
421
 16777215
 74
     1
 91
        4
 64
     7
 65
   257
 75
     1
175
     1
 42
1.0
 92
        0
 66
   257
 43
1.0
 76
     1
 77
     6
 78
     2
 67
     7
 79
     5
170
     0
171
     0
290
     0
174
     0
 93
        1
 44
0.0
173
     0
291
     0
 45
0.0
1001
ACAD
1000
AcDbSavedByObjectVersion
1070
     0
  0
VISUALSTYLE
  5
F4
102
{ACAD_REACTORS
330
EF
102
}
330
EF
100
AcDbVisualStyle
  2
Basic
 70
     7
 71
     1
 72
     0
 73
     1
 90
        0
 40
-0.6
 41
-30.0
 62
     5
 63
     7
421
 16777215
 74
     0
 91
        4
 64
     7
 65
   257
 75
     1
175
     1
 42
1.0
 92
        8
 66
     7
 43
1.0
 76
     1
 77
     6
 78
     2
 67
     7
 79
     5
170
     0
171
     0
290
     0
174
     0
 93
        1
 44
0.0
173
     0
291
     1
 45
0.0
1001
ACAD
1000
AcDbSavedByObjectVersion
1070
     0
  0
VISUALSTYLE
  5
FB
102
{ACAD_REACTORS
330
EF
102
}
330
EF
100
AcDbVisualStyle
  2
Brighten
 70
    12
 71
     2
 72
     2
 73
     1
 90
        0
 40
-0.6
 41
-30.0
 62
     5
 63
     7
421
 16777215
 74
     1
 91
        4
 64
     7
 65
   257
 75
     1
175
     1
 42
1.0
 92
        8
 66
     7
 43
1.0
 76
     1
 77
     6
 78
     2
 67
     7
 79
     5
170
     0
171
     0
290
     0
174
     0
 93
        1
 44
50.0
173
     0
291
     1
 45
0.0
1001
ACAD
1000
AcDbSavedByObjectVersion
1070
     0
  0
VISUALSTYLE
  5
FF
102
{ACAD_REACTORS
330
EF
102
}
330
EF
100
AcDbVisualStyle
  2
ColorChange
 70
    16
 71
     2
 72
     2
 73
     3
 90
        0
 40
-0.6
 41
-30.0
 62
     5
 63
     8
421
  8421504
 74
     1
 91
        4
 64
     7
 65
   257
 75
     1
175
     1
 42
1.0
 92
        8
 66
     8
424
  8421504
 43
1.0
 76
     1
 77
     6
 78
     2
 67
     7
 79
     5
170
     0
171
     0
290
     0
174
     0
 93
        1
 44
0.0
173
     0
291
     1
 45
0.0
1001
ACAD
1000
AcDbSavedByObjectVersion
1070
     0
  0
VISUALSTYLE
  5
F8
102
{ACAD_REACTORS
330
EF
102
}
330
EF
100
AcDbVisualStyle
  2
Conceptual
 70
     9
 71
     3
 72
     2
 73
     1
 90
        0
 40
-0.6
 41
-30.0
 62
     5
 63
     7
421
 16777215
 74
     2
 91
        2
 64
     7
 65
   257
 75
     1
175
     1
 42
40.0
 92
        8
 66
     7
 43
1.0
 76
     1
 77
     6
 78
     2
 67
     7
 79
     3
170
     0
171
     0
290
     0
174
     0
 93
        1
 44
0.0
173
     0
291
     0
 45
0.0
1001
ACAD
1000
AcDbSavedByObjectVersion
1070
     0
  0
VISUALSTYLE
  5
FA
102
{ACAD_REACTORS
330
EF
102
}
330
EF
100
AcDbVisualStyle
  2
Dim
 70
    11
 71
     2
 72
     2
 73
     1
 90
        0
 40
-0.6
 41
-30.0
 62
     5
 63
     7
421
 16777215
 74
     1
 91
        4
 64
     7
 65
   257
 75
     1
175
     1
 42
1.0
 92
        8
 66
     7
 43
1.0
 76
     1
 77
     6
 78
     2
 67
     7
 79
     5
170
     0
171
     0
290
     0
174
     0
 93
        1
 44
-50.0
173
     0
291
     1
 45
0.0
1001
ACAD
1000
AcDbSavedByObjectVersion
1070
     0
  0
VISUALSTYLE
  5
FE
102
{ACAD_REACTORS
330
EF
102
}
330
EF
100
AcDbVisualStyle
  2
Facepattern
 70
    15
 71
     2
 72
     2
 73
     1
 90
        0
 40
-0.6
 41
-30.0
 62
     5
 63
     7
421
 16777215
 74
     1
 91
        4
 64
     7
 65
   257
 75
     1
175
     1
 42
1.0
 92
        8
 66
     7
 43
1.0
 76
     1
 77
     6
 78
     2
 67
     7
 79
     5
170
     0
171
     0
290
     0
174
     0
 93
        1
 44
0.0
173
     0
291
     1
 45
0.0
1001
ACAD
1000
AcDbSavedByObjectVersion
1070
     0
  0
VISUALSTYLE
  5
F0
102
{ACAD_REACTORS
330
EF
102
}
330
EF
100
AcDbVisualStyle
  2
Flat
 70
     0
 71
     2
 72
     1
 73
     1
 90
        2
 40
-0.6
 41
30.0
 62
     5
 63
     7
421
 16777215
 74
     0
 91
        4
 64
     7
 65
   257
 75
     1
175
     1
 42
1.0
 92
        8
 66
     7
 43
1.0
 76
     1
 77
     6
 78
     2
 67
     7
 79
     5
170
     0
171
     0
290
     0
174
     0
 93
        1
 44
0.0
173
     0
291
     1
 45
0.0
1001
ACAD
1000
AcDbSavedByObjectVersion
1070
     0
  0
VISUALSTYLE
  5
F1
102
{ACAD_REACTORS
330
EF
102
}
330
EF
100
AcDbVisualStyle
  2
FlatWithEdges
 70
     1
 71
     2
 72
     1
 73
     1
 90
        2
 40
-0.6
 41
30.0
 62
     5
 63
     7
421
 16777215
 74
     1
 91
        4
 64
     7
 65
   257
 75
     1
175
     1
 42
1.0
 92
        0
 66
   257
 43
1.0
 76
     1
 77
     6
 78
     2
 67
     7
 79
     5
170
     0
171
     0
290
     0
174
     0
 93
        1
 44
0.0
173
     0
291
     1
 45
0.0
1001
ACAD
1000
AcDbSavedByObjectVersion
1070
     0
  0
VISUALSTYLE
  5
F2
102
{ACAD_REACTORS
330
EF
102
}
330
EF
100
AcDbVisualStyle
  2
Gouraud
 70
     2
 71
     2
 72
     2
 73
     1
 90
        2
 40
-0.6
 41
30.0
 62
     5
 63
     7
421
 16777215
 74
     0
 91
        4
 64
     7
 65
   257
 75
     1
175
     1
 42
1.0
 92
        0
 66
     7
 43
1.0
 76
     1
 77
     6
 78
     2
 67
     7
 79
     5
170
     0
171
     0
290
     0
174
     0
 93
        1
 44
0.0
173
     0
291
     1
 45
0.0
1001
ACAD
1000
AcDbSavedByObjectVersion
1070
     0
  0
VISUALSTYLE
  5
F3
102
{ACAD_REACTORS
330
EF
102
}
330
EF
100
AcDbVisualStyle
  2
GouraudWithEdges
 70
     3
 71
     2
 72
     2
 73
     1
 90
        2
 40
-0.6
 41
30.0
 62
     5
 63
     7
421
 16777215
 74
     1
 91
        4
 64
     7
 65
   257
 75
     1
175
     1
 42
1.0
 92
        0
 66
   257
 43
1.0
 76
     1
 77
     6
 78
     2
 67
     7
 79
     5
170
     0
171
     0
290
     0
174
     0
 93
        1
 44
0.0
173
     0
291
     1
 45
0.0
1001
ACAD
1000
AcDbSavedByObjectVersion
1070
     0
  0
VISUALSTYLE
  5
FD
102
{ACAD_REACTORS
330
EF
102
}
330
EF
100
AcDbVisualStyle
  2
Linepattern
 70
    14
 71
     2
 72
     2
 73
     1
 90
        0
 40
-0.6
 41
-30.0
 62
     5
 63
     7
421
 16777215
 74
     1
 91
        4
 64
     7
 65
   257
 75
     7
175
     7
 42
1.0
 92
        8
 66
     7
 43
1.0
 76
     1
 77
     6
 78
     2
 67
     7
 79
     5
170
     0
171
     0
290
     0
174
     0
 93
        1
 44
0.0
173
     0
291
     1
 45
0.0
1001
ACAD
1000
AcDbSavedByObjectVersion
1070
     0
  0
VISUALSTYLE
  5
F9
102
{ACAD_REACTORS
330
EF
102
}
330
EF
100
AcDbVisualStyle
  2
Realistic
 70
     8
 71
     2
 72
     2
 73
     1
 90
        0
 40
-0.6
 41
-30.0
 62
     5
 63
     7
421
 16777215
 74
     1
 91
        0
 64
     7
 65
   257
 75
     1
175
     1
 42
1.0
 92
        8
 66
     8
424
  7895160
 43
1.0
 76
     1
 77
     6
 78
     2
 67
     7
 79
     5
170
     0
171
     0
290
     0
174
     0
 93
       13
 44
0.0
173
     0
291
     0
 45
0.0
1001
ACAD
1000
AcDbSavedByObjectVersion
1070
     0
  0
VISUALSTYLE
  5
FC
102
{ACAD_REACTORS
330
EF
102
}
330
EF
100
AcDbVisualStyle
  2
Thicken
 70
    13
 71
     2
 72
     2
 73
     1
 90
        0
 40
-0.6
 41
-30.0
 62
     5
 63
     7
421
 16777215
 74
     1
 91
        4
 64
     7
 65
   257
 75
     1
175
     1
 42
1.0
 92
       12
 66
     7
 43
1.0
 76
     1
 77
     6
 78
     2
 67
     7
 79
     5
170
     0
171
     0
290
     0
174
     0
 93
        1
 44
0.0
173
     0
291
     1
 45
0.0
1001
ACAD
1000
AcDbSavedByObjectVersion
1070
     0
  0
DICTIONARYVAR
  5
7D9
102
{ACAD_REACTORS
330
5E
102
}
330
5E
100
DictionaryVariables
280
     0
  1
1:1
  0
DICTIONARYVAR
  5
7D7
102
{ACAD_REACTORS
330
5E
102
}
330
5E
100
DictionaryVariables
280
     0
  1
STANDARD
  0
DICTIONARYVAR
  5
84
102
{ACAD_REACTORS
330
5E
102
}
330
5E
100
DictionaryVariables
280
     0
  1
STANDARD
  0
DICTIONARYVAR
  5
5F
102
{ACAD_REACTORS
330
5E
102
}
330
5E
100
DictionaryVariables
280
     0
  1
2
  0
DICTIONARYVAR
  5
63
102
{ACAD_REACTORS
330
5E
102
}
330
5E
100
DictionaryVariables
280
     0
  1
1
  0
DICTIONARYVAR
  5
7DB
102
{ACAD_REACTORS
330
5E
102
}
330
5E
100
DictionaryVariables
280
     0
  1
1
  0
DICTIONARYVAR
  5
7DC
102
{ACAD_REACTORS
330
5E
102
}
330
5E
100
DictionaryVariables
280
     0
  1
15
  0
DICTIONARYVAR
  5
7DA
102
{ACAD_REACTORS
330
5E
102
}
330
5E
100
DictionaryVariables
280
     0
  1
0
  0
DICTIONARYVAR
  5
7D8
102
{ACAD_REACTORS
330
5E
102
}
330
5E
100
DictionaryVariables
280
     0
  1
0
  0
DICTIONARYVAR
  5
3F4F
102
{ACAD_REACTORS
330
5E
102
}
330
5E
100
DictionaryVariables
280
     0
  1
80.000000
  0
DICTIONARYVAR
  5
3F4E
102
{ACAD_REACTORS
330
5E
102
}
330
5E
100
DictionaryVariables
280
     0
  1
5.000000
  0
DICTIONARY
  5
3F54
330
ED
100
AcDbDictionary
280
     1
281
     1
  3
ACAD_XREC_ROUNDTRIP
360
3F55
  0
DICTIONARY
  5
3F52
330
EC
100
AcDbDictionary
280
     1
281
     1
  3
ACAD_XREC_ROUNDTRIP
360
3F53
  0
DICTIONARY
  5
3F56
330
EE
100
AcDbDictionary
280
     1
281
     1
  3
ACAD_XREC_ROUNDTRIP
360
3F57
  0
DICTIONARY
  5
7D4
330
7F
100
AcDbDictionary
280
     1
281
     1
  3
ACAD_ROUNDTRIP_2008_TABLESTYLE_CELLSTYLEMAP
360
3F50
  3
ACAD_XREC_ROUNDTRIP
360
3F51
  0
XRECORD
  5
3F55
102
{ACAD_REACTORS
330
3F54
102
}
330
3F54
100
AcDbXrecord
280
     1
102
MATERIAL
148
0.0
149
0.0
149
0.0
 93
        0
 94
       63
282
     0
 72
     1
 77
     1
171
     1
175
     1
179
     1
273
     0
  0
XRECORD
  5
3F53
102
{ACAD_REACTORS
330
3F52
102
}
330
3F52
100
AcDbXrecord
280
     1
102
MATERIAL
148
0.0
149
0.0
149
0.0
 93
        0
 94
       63
282
     0
 72
     1
 77
     1
171
     1
175
     1
179
     1
273
     0
  0
XRECORD
  5
3F57
102
{ACAD_REACTORS
330
3F56
102
}
330
3F56
100
AcDbXrecord
280
     1
102
MATERIAL
148
0.0
149
0.0
149
0.0
 93
        0
 94
       63
282
     0
 72
     1
 77
     1
171
     1
175
     1
179
     1
273
     0
  0
CELLSTYLEMAP
  5
3F50
102
{ACAD_REACTORS
330
7D4
102
}
330
7D4
100
AcDbCellStyleMap
 90
        3
300
CELLSTYLE
  1
TABLEFORMAT_BEGIN
 90
        5
170
     1
 91
        0
 92
    32768
 62
   257
 93
        1
300
CONTENTFORMAT
  1
CONTENTFORMAT_BEGIN
 90
        0
 91
        0
 92
      512
 93
        0
300

 40
0.0
140
1.0
 94
        5
 62
     0
340
11
144
6.0
309
CONTENTFORMAT_END
171
     1
301
MARGIN
  1
CELLMARGIN_BEGIN
 40
1.5
 40
1.5
 40
1.5
 40
1.5
 40
0.18
 40
0.18
309
CELLMARGIN_END
 94
        6
 95
        1
302
GRIDFORMAT
  1
GRIDFORMAT_BEGIN
 90
        0
 91
        1
 62
     0
 92
       -2
340
0
 93
        0
 40
0.045
309
GRIDFORMAT_END
 95
        2
302
GRIDFORMAT
  1
GRIDFORMAT_BEGIN
 90
        0
 91
        1
 62
     0
 92
       -2
340
0
 93
        0
 40
0.045
309
GRIDFORMAT_END
 95
        4
302
GRIDFORMAT
  1
GRIDFORMAT_BEGIN
 90
        0
 91
        1
 62
     0
 92
       -2
340
0
 93
        0
 40
0.045
309
GRIDFORMAT_END
 95
        8
302
GRIDFORMAT
  1
GRIDFORMAT_BEGIN
 90
        0
 91
        1
 62
     0
 92
       -2
340
0
 93
        0
 40
0.045
309
GRIDFORMAT_END
 95
       16
302
GRIDFORMAT
  1
GRIDFORMAT_BEGIN
 90
        0
 91
        1
 62
     0
 92
       -2
340
0
 93
        0
 40
0.045
309
GRIDFORMAT_END
 95
       32
302
GRIDFORMAT
  1
GRIDFORMAT_BEGIN
 90
        0
 91
        1
 62
     0
 92
       -2
340
0
 93
        0
 40
0.045
309
GRIDFORMAT_END
309
TABLEFORMAT_END
  1
CELLSTYLE_BEGIN
 90
        1
 91
        1
300
_TITLE
309
CELLSTYLE_END
300
CELLSTYLE
  1
TABLEFORMAT_BEGIN
 90
        5
170
     1
 91
        0
 92
        0
 62
   257
 93
        1
300
CONTENTFORMAT
  1
CONTENTFORMAT_BEGIN
 90
        0
 91
        0
 92
      512
 93
        0
300

 40
0.0
140
1.0
 94
        5
 62
     0
340
11
144
4.5
309
CONTENTFORMAT_END
171
     1
301
MARGIN
  1
CELLMARGIN_BEGIN
 40
1.5
 40
1.5
 40
1.5
 40
1.5
 40
0.18
 40
0.18
309
CELLMARGIN_END
 94
        6
 95
        1
302
GRIDFORMAT
  1
GRIDFORMAT_BEGIN
 90
        0
 91
        1
 62
     0
 92
       -2
340
0
 93
        0
 40
0.045
309
GRIDFORMAT_END
 95
        2
302
GRIDFORMAT
  1
GRIDFORMAT_BEGIN
 90
        0
 91
        1
 62
     0
 92
       -2
340
0
 93
        0
 40
0.045
309
GRIDFORMAT_END
 95
        4
302
GRIDFORMAT
  1
GRIDFORMAT_BEGIN
 90
        0
 91
        1
 62
     0
 92
       -2
340
0
 93
        0
 40
0.045
309
GRIDFORMAT_END
 95
        8
302
GRIDFORMAT
  1
GRIDFORMAT_BEGIN
 90
        0
 91
        1
 62
     0
 92
       -2
340
0
 93
        0
 40
0.045
309
GRIDFORMAT_END
 95
       16
302
GRIDFORMAT
  1
GRIDFORMAT_BEGIN
 90
        0
 91
        1
 62
     0
 92
       -2
340
0
 93
        0
 40
0.045
309
GRIDFORMAT_END
 95
       32
302
GRIDFORMAT
  1
GRIDFORMAT_BEGIN
 90
        0
 91
        1
 62
     0
 92
       -2
340
0
 93
        0
 40
0.045
309
GRIDFORMAT_END
309
TABLEFORMAT_END
  1
CELLSTYLE_BEGIN
 90
        2
 91
        1
300
_HEADER
309
CELLSTYLE_END
300
CELLSTYLE
  1
TABLEFORMAT_BEGIN
 90
        5
170
     1
 91
        0
 92
        0
 62
   257
 93
        1
300
CONTENTFORMAT
  1
CONTENTFORMAT_BEGIN
 90
        0
 91
        0
 92
      512
 93
        0
300

 40
0.0
140
1.0
 94
        2
 62
     0
340
11
144
4.5
309
CONTENTFORMAT_END
171
     1
301
MARGIN
  1
CELLMARGIN_BEGIN
 40
1.5
 40
1.5
 40
1.5
 40
1.5
 40
0.18
 40
0.18
309
CELLMARGIN_END
 94
        6
 95
        1
302
GRIDFORMAT
  1
GRIDFORMAT_BEGIN
 90
        0
 91
        1
 62
     0
 92
       -2
340
0
 93
        0
 40
0.045
309
GRIDFORMAT_END
 95
        2
302
GRIDFORMAT
  1
GRIDFORMAT_BEGIN
 90
        0
 91
        1
 62
     0
 92
       -2
340
0
 93
        0
 40
0.045
309
GRIDFORMAT_END
 95
        4
302
GRIDFORMAT
  1
GRIDFORMAT_BEGIN
 90
        0
 91
        1
 62
     0
 92
       -2
340
0
 93
        0
 40
0.045
309
GRIDFORMAT_END
 95
        8
302
GRIDFORMAT
  1
GRIDFORMAT_BEGIN
 90
        0
 91
        1
 62
     0
 92
       -2
340
0
 93
        0
 40
0.045
309
GRIDFORMAT_END
 95
       16
302
GRIDFORMAT
  1
GRIDFORMAT_BEGIN
 90
        0
 91
        1
 62
     0
 92
       -2
340
0
 93
        0
 40
0.045
309
GRIDFORMAT_END
 95
       32
302
GRIDFORMAT
  1
GRIDFORMAT_BEGIN
 90
        0
 91
        1
 62
     0
 92
       -2
340
0
 93
        0
 40
0.045
309
GRIDFORMAT_END
309
TABLEFORMAT_END
  1
CELLSTYLE_BEGIN
 90
        3
 91
        2
300
_DATA
309
CELLSTYLE_END
  0
XRECORD
  5
3F51
102
{ACAD_REACTORS
330
7D4
102
}
330
7D4
100
AcDbXrecord
280
     1
102
ACAD_ROUNDTRIP_PRE2007_TABLESTYLE
 90
      512
 91
        0
  1

 92
      512
 93
        0
  2

 94
      512
 95
        0
  3

  0
ENDSEC
  0
EOF
